Song name
# A B C D E F G H I J K L M N O P Q R S T U V W X Y Z

Rollins Band - What Am I Doing Here tab

~	= vibrato/vibration
~~	= veel vibrato/much vibration
\	= slide omlaag/slide down
(2)	= wordt af en toe gespeeld/ is played sometimes
0	= lichtjes afdempen/mute strings slightly
<7>	= kunstmatige flagolet/artificial harmonic

cursieve cijfers/ italic numbers = laat doorklinken/let ring

RIFF A (met kleine variaties/with slight variations)

E --7-------7-10--10-\-|-7------------------|
B --7-------7-10--10-\-|-7----15~~-15~~-15\-|
G --7-------7-10--10-\-|-7------------------|
D --7-------7-10--10-\-|-7------------------|
A -(0)-----------------|--------------------|
E ---------------------|--------------------|

E --7-------7-10--10-\-|-7------------------|
B --7-------7-10--10-\-|-7------------------|
G --7-------7-10--10-\-|-7-----<7~~>-<7~~>\-|
D --7-------7-10--10-\-|-7------------------|
A -(0)-----------------|--------------------|
E ---------------------|--------------------|

opmerking:/note: bas speelt/bass plays:
hoge/high (D)- E - B - G - hoge/high F# - D, hoge/high E - B - G - F# - D

RIFF B

E -----------------|------------------|-----------------|
B -----------------|-9-9-------7------|-----------------|
G -9-9-----7-7---7-|-----9-9-7---7----|-----------------|
D -----8-------8---|----------------6-|-8-8-----6-6-----|
A -----------------|------------------|-----7-7-----7-7-|
E -----------------|------------------|-----------------|

	1.2.3. keer/time	4. keer/time

E -----------------|------------------|
B -----------------|------------------|
G -----------------|------------------|
D -8-8-----6\4--4--|-8-------6--------|
A -----7-7---------|-----7------------|
E -----------------|------------------|

opmerking: bas speelt ongeveer als in riff A
note: bass plays more or less like as in riff A

RIFF C

1.3.  keer/time	2. keer/time	4. keer/time

E----------------------------|-----------------------------|-------------------------|
B----------------------------|-----------------------------|-------------------------|
G----------------------------|-----------------------------|-------------------------|
D----------------------------|-----------------------------|-------------------------|
A-4----2----4----2---4-4---2-|-6-6----4-4----6-6---4-4-4-6-|-6-6----4-4----6-6---6-4-|
E----3----3----3---3-----3---|-----5------5------5---------|-----5------5------5-----|

SOLO

Bas speelt ongeveer als in riff A, maar dan een hele noot hoger/
bass plays more or less like as in riff A, but with a whole note higher

LATER IN HET NUMMER/LATER ON IN THE SONG

later in het nummer worden riff B en C een hele noot hoger gespeeld/
later on in this song, riff B and C are played 1 whole note higher
Tap to rate this tab
 
# A B C D E F G H I J K L M N O P Q R S T U V W X Y Z