Rollins Band - Step Back tab

Rollins Band - Step Back

Album: Weight
Instrument: Guitar
Tuning: eBGDAE

Tabbed By: Rolf Oslo


Intro

e||----------------------------|-----------------------------|-----------------------------|
B||-------8~-------------------|-------8--12-----------------|-------8--12-----------------|
G||-------7~-------------------|-------7--12-----------------|-------7--12-----------------|
D||-2--2-----------------------|-2--2------------------------|-2--2------------------------|
A||-2--2-----------------0-1-2-|-2--2------------------0-1-2-|-2--2------------------0-1-0-|
E||-0--0-------0-1-2-3-4-------|-0--0--------0-1-2-3-4-------|-0--0--------0-1-2-3-4-------|

e||----------|
B||-8--7--6--|
G||-7--6--5--|
D||----------|
A||----------|
E||----------|


Verse

e||------------------------------|--------------------------------------|
B||------------------------------|--------------------------------------|
G||-------7------7-6-----6/7\6---|-------7------7-6-------6-7-6--/11--9-|
D||-7-8-9-7--------------------5-|-7-8-9-7------------5-7---------------|
A||-7-8-9-5----------------------|-7-8-9-5------------------------------|
E||-5-6-7------------------------|-5-6-7--------------------------------|

e||------------------------------|--------------------------------------|
B||------------------------------|--------------------7-5-7-8-7-5-------|
G||-------7------7-6-----6/7\6---|-------7------7-6---------------------|
D||-7-8-9-7--------------------5-|-7-8-9-7------------------------------|
A||-7-8-9-5----------------------|-7-8-9-5------------------------------|
E||-5-6-7------------------------|-5-6-7--------------------------------|




Chorus

e||----------------------------|-----------------------------|-----------------------------|
B||-------8~-------------------|-------8--12-----------------|-------8--12-----------------|
G||-------7~-------------------|-------7--12-----------------|-------7--12-----------------|
D||-2--2-----------------------|-2--2------------------------|-2--2------------------------|
A||-2--2-----------------0-1-2-|-2--2------------------0-1-2-|-2--2------------------0-1-0-|
E||-0--0-------0-1-2-3-4-------|-0--0--------0-1-2-3-4-------|-0--0--------0-1-2-3-4-------|

e||----------|
B||-8--7--6--|
G||-7--6--5--|
D||----------|
A||----------|
E||----------|


Verse

e||------------------------------|--------------------------------------|
B||------------------------------|--------------------8-7--5------------|
G||-------7------7-6-----6/7\6---|-------7------7-6----------7-6-7-6----|
D||-7-8-9-7--------------------5-|-7-8-9-7---------------------------5--|
A||-7-8-9-5----------------------|-7-8-9-5------------------------------|
E||-5-6-7------------------------|-5-6-7--------------------------------|

e||------------------------------|--------------------------------------|
B||------------------------------|--------------------7-5-7-8-7-5-------|
G||-------7------7-6-----6/7\6---|-------7------7-6---------------------|
D||-7-8-9-7--------------------5-|-7-8-9-7------------------------------|
A||-7-8-9-5----------------------|-7-8-9-5------------------------------|
E||-5-6-7------------------------|-5-6-7--------------------------------|


Chorus

e||----------------------------|-----------------------------|-----------------------------|
B||-------8~-------------------|-------8--12-----------------|-------8--12-----------------|
G||-------7~-------------------|-------7--12-----------------|-------7--12-----------------|
D||-2--2-----------------------|-2--2------------------------|-2--2------------------------|
A||-2--2-----------------0-1-2-|-2--2------------------0-1-2-|-2--2------------------0-1-0-|
E||-0--0-------0-1-2-3-4-------|-0--0--------0-1-2-3-4-------|-0--0--------0-1-2-3-4-------|

e||----------|
B||-8--7--6--|
G||-7--6--5--|
D||----------|
A||----------|
E||----------|


Solo

e||---5----5----5-7b--5----5-----|------------------------------|
B||-7----7----7----------7---7-7-|---5----4----5-5---4----5-4---|
G||------------------------------|-6----6----6-----6----6-----6-|
D||------------------------------|------------------------------|
A||------------------------------|------------------------------|
E||------------------------------|------------------------------|

e||---5----5----5-7b--5----5-----|-----------------------4-------|
B||-7----7----7----------7---7-7-|---5----4----5---7-5-------5---|
G||------------------------------|-6----6----6---6-----6---6---6-|
D||------------------------------|-------------------------------|
A||------------------------------|-------------------------------|
E||------------------------------|-------------------------------|


Verse

e||------------------------------|-------------------------------------|
B||------------------------------|-------------------------------------|
G||-------7------7-6-----6/7\6---|-------7------7-6-----7--6-11--9--12-|
D||-7-8-9-7--------------------5-|-7-8-9-7------------5----------------|
A||-7-8-9-5----------------------|-7-8-9-5-----------------------------|
E||-5-6-7------------------------|-5-6-7-------------------------------|

e||------------------------------|--------------------------------------|
B||------------------------------|--------------------7-5-7-8-7-5-------|
G||-------7------7-6-----6/7\6---|-------7------7-6---------------------|
D||-7-8-9-7--------------------5-|-7-8-9-7------------------------------|
A||-7-8-9-5----------------------|-7-8-9-5------------------------------|
E||-5-6-7------------------------|-5-6-7--------------------------------|


Solo

e||---6----6----6-8b--6----6-----|------------------------------|
B||-8----8----8----------8---8-8-|---6----5----6-6---5----6-5---|
G||------------------------------|-7----7----7-----7----7-----7-|
D||------------------------------|------------------------------|
A||------------------------------|------------------------------|
E||------------------------------|------------------------------|

e||---6----6----6-8b--6----6-----|-----------------------5-------|
B||-8----8----8----------8---8-8-|---6----5----6---8-6-------6---|
G||------------------------------|-7----7----7---7-----7---7---7-|
D||------------------------------|-------------------------------|
A||------------------------------|-------------------------------|
E||------------------------------|-------------------------------|

e||---3----3----3-5b--3----3-----|------------------------------|
B||-5----5----5----------5---5-5-|---3----2----3-3---2----3-2---|
G||------------------------------|-4----4----4-----4----4-----4-|
D||------------------------------|------------------------------|
A||------------------------------|------------------------------|
E||------------------------------|------------------------------|

e||---3----3----3-5b--3----3-----|-----------------------2-------|
B||-5----5----5----------5---5-5-|---3----2----3---5-3-------3---|
G||------------------------------|-4----4----4---4-----4---4---4-|
D||------------------------------|-------------------------------|
A||------------------------------|-------------------------------|
E||------------------------------|-------------------------------|


Chorus

e||----------------------------|-----------------------------|-----------------------------|
B||-------8~-------------------|-------8--12-----------------|-------8--12-----------------|
G||-------7~-------------------|-------7--12-----------------|-------7--12-----------------|
D||-2--2-----------------------|-2--2------------------------|-2--2------------------------|
A||-2--2-----------------0-1-2-|-2--2------------------0-1-2-|-2--2------------------0-1-0-|
E||-0--0-------0-1-2-3-4-------|-0--0--------0-1-2-3-4-------|-0--0--------0-1-2-3-4-------|

e||----------|
B||-8--7--6--|
G||-7--6--5--|
D||----------|
A||----------|
E||----------|


Bass break
then
e||------------------------------|--------------------------------------|
B||------------------------------|--------------------7-5-7-8-7-5-------|
G||-------7------7-6-----6/7\6---|-------7------7-6---------------------|
D||-7-8-9-7--------------------5-|-7-8-9-7------------------------------|
A||-7-8-9-5----------------------|-7-8-9-5------------------------------|
E||-5-6-7------------------------|-5-6-7--------------------------------|


Outro

e||---6----6----6-8b--6----6-----|------------------------------|
B||-8----8----8----------8---8-8-|---6----5----6-6---5----6-5---|
G||------------------------------|-7----7----7-----7----7-----7-|
D||------------------------------|------------------------------|
A||------------------------------|------------------------------|
E||------------------------------|------------------------------|

e||---6----6----6-8b--6----6-----|--------------------5-----5-|
B||-8----8----8----------8---8-8-|---6----5----6---86----86---|
G||------------------------------|-7----7----7---7---7-7---7--|
D||------------------------------|----------------------------|
A||------------------------------|----------------------------|
E||------------------------------|----------------------------|

e||---3----3----3-5b--3----3-----|------------------------------|
B||-5----5----5----------5---5-5-|---3----2----3-3---2----3-2---|
G||------------------------------|-4----4----4-----4----4-----4-|
D||------------------------------|------------------------------|
A||------------------------------|------------------------------|
E||------------------------------|------------------------------|

e||---3----3----3-5b--3----3-----|---------------|
B||-5----5----5----------5---5-5-|-8--7--6~------|
G||------------------------------|-7--6--5~------|
D||------------------------------|---------------|
A||------------------------------|---------------|
E||------------------------------|---------------|



Lyrics

You're so fuckin' weak, you disgust me! 
It's a drag when you bring me down
And all the things that you say, no one cares anyway
But then you've gotta deal with me...

You step back! 
You step back! 
Or you fall down!!

I see through the lies to the bottom of your eyes
Your fake charisma pulls you through!
And the house of cards that you built on the cheap shot guilt
Doesn't mean a fuckin' thing to me!

You step back! 
You step back! 
Or you fall down!!

You're pathetic and you're weak, you're a fake and you lie
I'd like to crush you like an insect but I don't wanna do the time
Do you really wanna confront me?
Do you really wanna deal with me? uh? uh? uh?, no!
I really don't think so!! *solo*

You step back! 
You step back! 
or you fall down!!

Now. What the fuck is going through your tiny little mind?
I'm gonna show ya how fragile you really are... yah.
Yeah! I think I'm gonna fuck with you, I think I'm gonna fuck with you
Yeah you, yeah you! yeah you, motherfucker!

Tap to rate this tab
 
# A B C D E F G H I J K L M N O P Q R S T U V W X Y Z