Song name
# A B C D E F G H I J K L M N O P Q R S T U V W X Y Z

Rollins Band - Wreckage tab

-------------------------------------------------------------------------------
			     THE WRECKAGE - Corey Smith
-------------------------------------------------------------------------------
Tabbed by: Jayrod

Tuning: standard, CAPO 5

INTRO
e|---------------------------------------------------------------------------|
B|--------3-----------3-----------3-----------3---------------------3--------|
G|----0-------0-----------0-----------0-----------0-------------0-------0----|
D|----------------4-----------2-----------0-----------------0----------------|
A|----------------------------------------------------2h3--------------------|
E|---------------------------------------------------------------------------|

e|----------------------------------------------------------------------|
B|----------------------------------------------------------------------|
G|------------------0---------0---0-----------0---------0---0-----------|
D|----------------------0h2-------2---0-----------0h2-------2---0-------|
A|----3---2p0-----------------------------------------------------------|
E|--------------3-------------------------3-----------------------------|


VERSES
The album version sounds real simple, one or two notes. You may choose to play a fuller chord yourself.
e|------------------------------------------------------------------|
B|------------------------------------------------------------------|
G|---------------------------------2-------0---------0---0----------|
D|---------------------2-----------0-----------0h2-------2---0------|
A|----2----2---0---2---3---2---2-------2----------------------------|
E|----3----3---------------3---0-------3----------------------------|


CHORUS
e|----------------------------------------------------------------------|
B|----------------------------------------------------------------------|
G|--------2-----------------------2----------------------2--------------|
D|----2---0-------------------2---0------------------2---0--------------|
A|----3-------2-------0---2---3-------2------0---2---3-------2---2------|
E|------------3---3-------------------3---3------------------3---0------|

e|----------------------------------------------------------------------|
B|----------------------------------------------------------------------|
G|--------2-----------------0---------------2-------0----------0--------|
D|----2---0-----------0h2-------0-------2---0-------2---0------2---0----|
A|----3-----------2-----------------2---3-------2----------2------------|
E|------------2---3-----------------------------3----------3------------|


ENDING
End of last chorus
e|----------------------------2h3---2----------------3------|
B|--------------------------------------3-----------3-------|
G|--------2-------0-------2------------------------0--------|
D|----2---0-------2---2---0-----------------------0---------|
A|----3-------2-------3--------------------------2----------|
E|------------0-----------------------------2---3-----------|


| h  hammer-on
| p  pull-off
===============================================================================
Tap to rate this tab
# A B C D E F G H I J K L M N O P Q R S T U V W X Y Z