Song name
# A B C D E F G H I J K L M N O P Q R S T U V W X Y Z

Romeo Santos - Llvame Contigo tab

E------------------------------------------------|
B-15-15-13-13-11-11-10-10h11p10------------------|
G-------------------------------12---------------|
D------------------------------------------------|
A------------------------------------------------|
E------------------------------------------------|

E-----------------------------------------------------------|
B------10-10-11/16-16-16-15-15-13-13-11-11h13---------------|
G--12-------------------------------------------------------|
D-----------------------------------------------------------|
A-----------------------------------------------------------|
E-----------------------------------------------------------|

E------------------------------------------------|
B-15-15-13-13-11-11-10-10h11p10------------------|
G-------------------------------12---------------|
D------------------------------------------------|
A------------------------------------------------|
E------------------------------------------------|

E----------------------------------------------------------------|
B------10-11-11/13----16-16-15-15-13-13-11-13/15-13--------------|
G--12--------------12--------------------------------------------|
D----------------------------------------------------------------|
A----------------------------------------------------------------|
E----------------------------------------------------------------|

solo
E--6------13----------6--------5------11---------6---------20----|
B----8--------13---------8-------6--------13-------6-------22----|
G------7----------14--------7------7----------12-----7-----------|
D----------------------------------------------------------------|
A----------------------------------------------------------------|
E----------------------------------------------------------------|

tabs by Bachata Tabs & Chedda
Tap to rate this tab
# A B C D E F G H I J K L M N O P Q R S T U V W X Y Z