Guitaretab - guitar tabs
Song name
# A B C D E F G H I J K L M N O P Q R S T U V W X Y Z

Ronnie Day - Falling For You tab

Song: Falling For You
Artist: Leeland
Album: Opposite Way
Both guitars standard tuning 

Intro: Gtr. 1
e|--------------------------|
B|--------------------------|
G|-4----4----4----4----4----|
D|---6----6----6----6----6--|
A|0----0----0----0----0----0|
E|--------------------------| x3
[ Tab from: http://www.guitaretab.com/r/ronnie-day/153182.html ]
Intro: Gtr. 2
e|---------------------------|
B|---------------------------|
G|---------------------------|
D|---------------------------|
A|0--0----------0--0---------|
E|-----2-0--0-2------2-0--0-2|

This all I have so far. I might post some more if
I can figure it out. Feel free to comment and PLEASE RATE!!!
Related for Falling For You tab
×
Falling For You