Song name
# A B C D E F G H I J K L M N O P Q R S T U V W X Y Z

Rooster Teeth - Agent Tex tab

Key:
^ = Strum up
v = Strum Down
* = Let it ring

Intro:
------------------^*---------------------------------------v*---------|
E-|--------------0-----------------------------------------0----------|
B-|--------------0-----------------------------------------0----------|
G-|--------------0-----------------------------------------0----------|
D-|--------------0-----------------------------------------0----------|
A-|--------------0-----------------------------------------0----------|
E-|--0------3----3-----------0-----3-----0---------3---0---0----------|
Chorus:
E-|---------------------------------------------|
B-|---------------------------------------------|
G-|---------------------------------------------|
D-|---------------------------------------------|
A-|---------2---------2---0-2-3-2---------------|
E-|--0---3-----0---3--------------3-2-0---------|

10x then abrupt stop before the last note
Then pickup at begging chorus for 2x
Stop at 4-1-0 to slide from 12 to 1 fret begging chorus 2x more letting the last note ring.

This tab is by empdude5000 please rate
Tap to rate this tab
# A B C D E F G H I J K L M N O P Q R S T U V W X Y Z