Song name
# A B C D E F G H I J K L M N O P Q R S T U V W X Y Z

Rootlifter - My Way Home tab

artist: rootlifter
title: my way home
album: not yet established
music and lyrics by: sean carver
tuning: standard

VERSES:
E:0--0---3-0-0-----0-----0-0--------0-0---3-0------0-----0-0-------
A:1---1--1-1--1h0--0--0--3-0--------1--1--1-1------0--0--3-0-------
D:2----2-2-2-----2-0-----0-0-----0--2---2-2-2------0-----0-0-------
G:2------2-2-------2---2-2-2----0-0-2-----2-2------2---2-2-2----2--
B:0------0-0-------2-----2-2-0h2----0-----0-0-0----2-----2-2-2h4-4-
E:-----------------0-----0-0-------------------3-2-0-----0-0-------

CHORUS:
E:-----------------------------------
A:4-4-4-4--9-9-9-9--6-6-6-6--2-2-2-2-
D:4-4-4-4--9-9-9-9--6-6-6-6--2-2-2-2-
G:4-4-4-4--9-9-9-9--6-6-6-6--2-2-2-2-
B:2-2-2-2--7-7-7-7--4-4-4-4--0-0-0-0-
E:-----------------------------------

INTERLUDE:
E:9-10-9--9------7-8-7-7-----3-4-3-3--------------
A:------11-11-9*------9-9-7*------5-5-3*----------
D:----------------------------------------5-5-5-5- repeat 4 times
G:----------------------------------------5-5-5-5-
B:----------------------------------------3-3-3-3-
E:----------------------------------------3-3-3-3-


LYRICS:

inside the shadows,
and tongue tied to clay,
count on me, my love,
cause im on my way...

i'll take the love i get,
and try to give love away,
and my precious little girl,
im still on my way...

ohh, i wanna come home,
God, i wanna come home,
i try and i try,
to make my way,
and God i wanna come home...

with the ghosts in the past,
you left me alone,
but cradled in his arms,
im on my way home...


by sean carver
Tap to rate this tab
# A B C D E F G H I J K L M N O P Q R S T U V W X Y Z