Royal Republic - All Because Of You tab

------------------------------------
ALL BECAUSE OF YOU - ROYAL REPUBLIC
------------------------------------

h - hammer on 
p - pull off 
b - bend string up
r - release bend
/ - slide up
\ - slide down
v - vibrato (or ~)
t - right hand tap
x - play 'note' with heavy muting

BASS/DRUM-INTRO

VERSE:

E|---------------------------------------------------------------|
B|--33333333333---55555555555---33333333333---55555555555--------|
G|--33333333333---55555555555---33333333333---55555555555--------|   REPEAT
D|---------------------------------------------------------------|
A|---------------------------------------------------------------|
E|---------------------------------------------------------------|

BRIDGE:

E|-6-6-6-6-6-6-6-6-8-8-8-8-8-8-8-8-|
B|-6-6-6-6-6-6-6-6-8-8-8-8-8-8-8-8-|
G|---------------------------------|
D|---------------------------------|
A|---------------------------------|
E|---------------------------------|
                                                                       
E|11-11-11-11-11-11-11-11-13-13-13-13--X-X-X-X-X--------|
B|11-11-11-11-11-11-11-11-13-13-13-13--X-X-X-X-X--------|
G|-------------------------------------X-X-X-X-X--------|
D|-------------------------------------X-X-X-X-X--------|
A|-------------------------------------X-X-X-X-X--------|
E|-------------------------------------X-X-X-X-X--------|
                                       C-C-C-C-CRAZY...
CHORUS:

E|------------------------------------------------------------------|
B|------------------------------------------------------------------|
G|---------------------5--5----5--8-----5-----8--8--10-10-----------|
D|--5-----5--8--5------5--5----5--8-----5-----8--8--10-10-8--8--10--|  (REPEAT) 
A|--5-----5--8--5------3--3----3--6-----3-----6--6--8--8--8--8--10--|
E|--3-----3--6--3-----------------------------------------6--6--8---|

X 4

VERSE
BRIDGE
CHORUS

GUITARSOLO:

E|-----------------------------------------------------------------|
B|---------------------------------------------------6---8---6-8-8-|
G|---------3---3-5-7-5-3-5---5-7-3---3-----3---3-5-7---7-----------|
D|-5-5-3-5---5-------------------------3-5---5---------------------|
A|-----------------------------------------------------------------|
E|-----------------------------------------------------------------|

E|-----------------------------------------------------------------|
B|-------------------------------------------------------6---------|
G|-------3---3-5-3-7-5-3-5---3-5-7---5-3-5---3-5-7---5-3-----------|
D|---3-5---5-------------------------------------------------------|
A|-----------------------------------------------------------------|
E|-----------------------------------------------------------------|

E|---------------------------------------------------------------|
B|---------------------------------------------------------------|
G|---------------------------------------------------------------|
D|---------------------------------------------------------------|
A|---------------------------------------------------------------|
E|-3------------------------------3------------------------------|

BRIDGE (W/ BREAK @ END)
CHORUS
GUITARSOLO

E|--------------------|
B|--------------------|
G|-8-8-10-10----------|
D|-8-8-10-10----------|
A|-6-6-8--8--8-8-10---|
E|-----------6-6-8----|

Tap to rate this tab
 
# A B C D E F G H I J K L M N O P Q R S T U V W X Y Z