Royal Republic - Underwear tab

main riff:

e-|-------------------|-----------------------|-----------------------|-
b-|-------------------|-11-11-11-11-11-9----9-|-11-11-11-11-11-9----9-|-
g-|--------------8-10-|------------------10---|------------------10---|-
d-|-8-8-8-8-8-11------|-----------------------|-----------------------|-
a-|-------------------|-----------------------|-----------------------|-
e-|-------------------|-----------------------|-----------------------|-


e-|--------------------|
b-|----------9---------|
g-|-8-8-8-10---10-8----|
d-|-----------------11-|
a-|--------------------|
e-|--------------------|


verse:

b5 c#5 f#5 d#5 


chorus:

b5 f#5 d#5 c#5


listen to the song and you'll know how to play it
Tap to rate this tab
 
# A B C D E F G H I J K L M N O P Q R S T U V W X Y Z