Song name
# A B C D E F G H I J K L M N O P Q R S T U V W X Y Z

Royal Republic - Full Steam Spacemachine tab

royal republic - full steam spacemachine


tuning: EADGBe

intro:


|----------------------------------|----------------------------------|
|----------------------------------|----------------------------------|
|----------------9-11-9-----9------|--9-11-9-----9--------------------|
|---------9--11---------11-----11--|---------11-----11--9-------------|
|-----11---------------------------|-----------------------11--9------|
|--9-------------------------------|------------------------------12--|

|----------------------------------|----------------------------------|
|----------------------------------|----------------------------------|
|----------------9-11-9-----9------|--9-------------9--8--------------|
|---------9--11---------11-----11--|-----9------9---------10------10--|
|-----11---------------------------|--------11----------------11------|
|--9-------------------------------|----------------------------------| x2



verse:


|----------------------------------|-----------------------------------|
|----------------------------------|-----------------------------------|
|----------------------------------|-----------------------------------|
|----------------------------------|--------------------------4-4-4-4--|
|--4-4-4-4-4-4-4-4-4-4-4-4-4-4-4-4-|--4-4-4-4-4-4-4-4-2-2-2-2----------|
|----------------------------------|-----------------------------------|

|----------------------------------|-----------------------------------|
|----------------------------------|-----------------------------------|
|----------------------------------|-----------------------------------|
|----------------------------------|-----------------------------------|
|--4-4-4-4-4-4-4-4-4-4-4-4-4-4-4-4-|--7-7-9-9-1010111110109-9-7-7-6-6--|
|----------------------------------|-----------------------------------| x2



pre-chorus:


|--------------------------|--------------------------|
|--------------------------|--------------------------|
|--9--9--9--9--9--9--9--9--|--9--9--9--9--9--9--9--9--|
|--9--9--9--9--9--9--9--9--|--9--9--9--9--9--9--9--9--|
|--7--7--7--7--7--7--7--7--|--7--7--7--7--7--7--7--7--|
|--------------------------|--------------------------|

|--------------------------|-----------------------------|
|--------------------------|-----------------------------|
|--------------------------|--9-11--12--13--12-11--9--8--|
|--6--6--6--6--6--6--6--6--|--x--x---x---x---x--x--x--x--|
|--6--6--6--6--6--6--6--6--|--7--9--10--11--10--9--7--6--|
|--4--4--4--4--4--4--4--4--|-----------------------------|



chorus:


|----------------------------------|----------------------------------|
|----------------------------------|----------------------------------|
|----------------9-11-9-----9------|--9-11-9-----9--------------------|
|---------9--11---------11-----11--|---------11-----11--9-------------|
|-----11---------------------------|-----------------------11--9------|
|--9-------------------------------|------------------------------12--|

|----------------------------------|----------------------------------|
|----------------------------------|----------------------------------|
|----------------9-11-9-----9------|--9-------------9--8--------------|
|---------9--11---------11-----11--|-----9------9---------10------10--|
|-----11---------------------------|--------11----------------11------|
|--9-------------------------------|----------------------------------| x2



bridge:


|----------------------------------|-----------------------------------|
|----------------------------------|-----------------------------------|
|----------------------------------|-----------------------------------|
|----------------------------------|--------------------------4-4-4-4--|
|--4-4-4-4-4-4-4-4-4-4-4-4-4-4-4-4-|--4-4-4-4-4-4-4-4-2-2-2-2----------|
|----------------------------------|-----------------------------------|

|----------------------------------|-----------------------------------|
|----------------------------------|-----------------------------------|
|----------------------------------|-----------------------------------|
|----------------------------------|-----------------------------------|
|--4-4-4-4-4-4-4-4-4-4-4-4-4-4-4-4-|--7-7-9-9-1010111110109-9-7-7-6-6--|
|----------------------------------|-----------------------------------|



verse:


|--------------------------|---------------------------|
|--------------------------|---------------------------|
|-----6-----6-----6-----6--|-----6-----6-----4-----11--|
|--------------------------|---------------------------|
|--4-----4-----4-----4-----|--4-----4-----2-----9------|
|--------------------------|---------------------------|

|--------------------------|---------------------------|
|--------------------------|---------------------------|
|-----6-----6-----6-----6--|----11----11-----4-----5---|
|--------------------------|---------------------------|
|--4-----4-----4-----4-----|--9-----9-----2-----3------|
|--------------------------|---------------------------|

|--------------------------|---------------------------|
|--------------------------|---------------------------|
|-----6-----6-----6-----6--|-----6-----6-----4-----11--|
|--------------------------|---------------------------|
|--4-----4-----4-----4-----|--4-----4-----2-----9------|
|--------------------------|---------------------------|

|--------------------------|-----------------------------------|
|--------------------------|-----------------------------------|
|-----6-----6-----6-----6--|-----------------------------------|
|--------------------------|-----------------------------------|
|--4-----4-----4-----4-----|--7-7-9-9-1010111110109-9-7-7-6-6--|
|--------------------------|-----------------------------------|



pre-chorus:


|--------------------------|--------------------------|
|--------------------------|--------------------------|
|--9--9--9--9--9--9--9--9--|--9--9--9--9--9--9--9--9--|
|--9--9--9--9--9--9--9--9--|--9--9--9--9--9--9--9--9--|
|--7--7--7--7--7--7--7--7--|--7--7--7--7--7--7--7--7--|
|--------------------------|--------------------------|

|--------------------------|-----------------------------|
|--------------------------|-----------------------------|
|--------------------------|--9-11--12--13--12-11--9--8--|
|--6--6--6--6--6--6--6--6--|--x--x---x---x---x--x--x--x--|
|--6--6--6--6--6--6--6--6--|--7--9--10--11--10--9--7--6--|
|--4--4--4--4--4--4--4--4--|-----------------------------|



chorus:


|----------------------------------|----------------------------------|
|----------------------------------|----------------------------------|
|----------------9-11-9-----9------|--9-11-9-----9--------------------|
|---------9--11---------11-----11--|---------11-----11--9-------------|
|-----11---------------------------|-----------------------11--9------|
|--9-------------------------------|------------------------------12--|

|----------------------------------|----------------------------------|
|----------------------------------|----------------------------------|
|----------------9-11-9-----9------|--9-------------9--8--------------|
|---------9--11---------11-----11--|-----9------9---------10------10--|
|-----11---------------------------|--------11----------------11------|
|--9-------------------------------|----------------------------------| x2



bridge part 1:


|------------------------------|--------------------------|
|-----10-----10-----10-----10--|-----5-----5-----5-----5--|
|-----11-----11-----11-----11--|-----6-----6-----6-----6--|
|-----11-----11-----11-----11--|-----6-----6-----6-----6--|
|--9------9------9------9------|--4-----4-----4-----4-----|
|------------------------------|--------------------------| 

|------------------------------|--------------------------|
|-----10-----10-----10-----10--|--------------------------|
|-----11-----11-----11-----11--|-----6-----8-----9----10--|
|-----11-----11-----11-----11--|--------------------------|
|--9------9------9------9------|--4-----6-----7-----8-----|
|------------------------------|--------------------------|

|------------------------------|-----------------------------------|
|-----10-----10-----10-----10--|-----------------------------------|
|-----11-----11-----11-----11--|-----------------------------------|
|-----11-----11-----11-----11--|-----------------------------------|
|--9------9------9------9------|--7-7-9-9-1010111110109-9-7-7-6-6--|
|------------------------------|-----------------------------------|

|--------------------------|---------------------------------------| 
|--------------------------|---------------------------------------| 
|--6~----------------------|--5--5--5--5--5--5~--------------------|  
|--6~----------------------|--5--5--5--5--5--5~-hold about 2 bars--| 
|--4~----------------------|--3--3--3--3--3--3~--------------------| 
|--------------------------|---------------------------------------| 



bridge part 2:


|--------------------------|--------------------------|
|--------------------------|--------------------------|
|-----6-----6-----6-----6--|-----6-----6-----6-----6--|
|--------------------------|--------------------------|
|--4-----4-----4-----4-----|--4-----4-----4-----4-----|
|--------------------------|--------------------------| x4

|-----------------------------|-----------------------------|
|-----------------------------|-----------------------------|
|--9-11--12--13--12-11--9--8--|--9-11--12--13--12-11--9--8--|
|--x--x---x---x---x--x--x--x--|--9-11--12--13--12-11--9--8--|
|--7--9--10--11--10--9--7--6--|--7--9--10--11--10--9--7--6--|
|-----------------------------|-----------------------------|



bridge part 3:


|--------------------------|--------------------------|
|--------------------------|--------------------------|
|--6--6--6--6--6--6--6--6--|--6--6--6--6--4--4-11-11--|
|--6--6--6--6--6--6--6--6--|--6--6--6--6--4--4-11-11--|
|--4--4--4--4--4--4--4--4--|--4--4--4--4--2--2--9--9--|
|--------------------------|--------------------------|

|--------------------------|--------------------------|
|--------------------------|--------------------------|
|--6--6--6--6--6--6--6--6--|--9--9--9--9--------------|
|--6--6--6--6--6--6--6--6--|--9--9--9--9--6--6--6--6--|
|--4--4--4--4--4--4--4--4--|--7--7--7--7--4--4--4--4--|
|--------------------------|--------------4--4--4--4--| x6

|--------------------------|-----------------------------|
|--------------------------|-----------------------------|
|--9--9--9--9--------------|--9-11--12--13--12-11--9--8--|
|--9--9--9--9--6--6--6--6--|--x--x---x---x---x--x--x--x--|
|--7--7--7--7--4--4--4--4--|--7--9--10--11--10--9--7--6--|
|--------------4--4--4--4--|-----------------------------|


thats finally it, i hope its correctly as far as possible and u like it :)
Tap to rate this tab
 
# A B C D E F G H I J K L M N O P Q R S T U V W X Y Z