Song name
# A B C D E F G H I J K L M N O P Q R S T U V W X Y Z

Rpwl - Hole In The Sky tab

Interpret: RPWL    http://www.rpwl.net/             Tabbed by Summer68

Title: Hole in the Sky
       Version from the Live Album „Start the fire“

Tuning: EADGBe

h = hammer-on
b = bend
r = release
/ = slide up
\ = slide down
~ = vibration

Solo (6:57)

-----------------------------------------------------11--/13--13-13-|
-13----13-13-13----13\--/13~~~~-11----------------13----------------|
----------------------------------13-12~~~~-12-13-------------------|
--------------------------------------------------------------------|
--------------------------------------------------------------------|
--------------------------------------------------------------------|

/13~~~-13-13-13-\11-10-11-------------------------------------------|
--------------------------------------------------------------------|
-------------------------- -----10/12-10----10----------------------|
---------------------------13~~~---------13----12~~~~~\0------------|
--------------------------------------------------------0/3---3-5-6-|
--------------------------------------------------------------------|

--------------------------------------------------------------------|
--------------------------------------------11------------------11--|
--------------------------------------------------------------------|
---------/3------3/5~-3----------/10--12-13-----12-13-----12-13-----|
-----5-6----6~~~--------6-6~~-5\0---------------------13------------|
6~~~----------------------------------------------------------------|

-----------------------------------------------------15----15-16-15-|
--------------------------15----15-16-15-16-18-16-18----18----------|
--12-13-15-13-15-17-15-17----17-------------------------------------|
--------------------------------------------------------------------|
--------------------------------------------------------------------|
--------------------------------------------------------------------|

16-18-16-18b--18b-18b-18b\/18b-18b-18b-18b-18--15-16-18-15h16r15----|
-----------------------------------------------------------------18-|
--------------------------------------------------------------------|
--------------------------------------------------------------------|
--------------------------------------------------------------------|
--------------------------------------------------------------------|

15-------------------------------------------------------------------|
---16-18-15h16r15----15----------------------11b-11b-11b-11b-13b-13--|b
------------------17----17-15-13~~~-15-13-12-------------------------|
---------------------------------------------------------------------|
---------------------------------------------------------------------|
---------------------------------------------------------------------|

-----------------------------------------------18-----18------------|
-13b-13b-15b-15b-15b-15b-16b-16b-16b-16-18-18b----18b----18br---18b-|
--------------------------------------------------------------------|
--------------------------------------------------------------------|
--------------------------------------------------------------------|
--------------------------------------------------------------------|

18-----18------------18-----18-19~~~18-20-20b~-20~--18-20-20b-20b-18-|
---18b----18br---18b----18b------------------------------------------|
---------------------------------------------------------------------|
---------------------------------------------------------------------|
---------------------------------------------------------------------|
---------------------------------------------------------------------|

--18-20-20b-20b-20b-20b-20-18-20------------------------------16~~16-|
---------------------------------16~~~~~15~~~~~18~~18-16~~16---------|
---------------------------------------------------------------------|
---------------------------------------------------------------------|
---------------------------------------------------------------------|
---------------------------------------------------------------------|

15~~15-11~~11-10-11-10----------------------------------------------|
-----------------------13~~~~~--------------------------------------|
--------------------------------------------------------------------|
--------------------------------------------------------------------|
--------------------------------------------------------------------|
--------------------------------------------------------------------|
Tap to rate this tab
 
# A B C D E F G H I J K L M N O P Q R S T U V W X Y Z