Song name
# A B C D E F G H I J K L M N O P Q R S T U V W X Y Z

Rtz - Face The Music tab

-------------------------------------------------------------------------------
			     FACE THE MUSIC - RTZ
-------------------------------------------------------------------------------
Tabbed by: Isaias Garcia (TexasFury)

Tuning: Standard


Rhythm - Clean

                                                                 PM PM  PM PM PM PM PM PM  
     W                   W                   W                   E  E   E  E  E  E  E  E   
E||-------------------|-------------------|-------------------|---------------------------|
B||-------------------|-------------------|-------------------|--------10-----------9-----|
G||-------------------|-------------------|-------------------|-----9------9-----9-----9--|
D||-------------------|-------------------|-------------------|--9------------9-----------|
A||-------------------|-------------------|-------------------|---------------------------|
E||-------------------|-------------------|-------------------|---------------------------|


  PM PM  PM PM PM PM PM PM    PM PM  PM PM PM PM PM PM    PM PM  PM PM PM PM PM PM  
  E  E   E  E  E  E  E  E     E  E   E  E  E  E  E  E     E  E   E  E  E  E  E  E   
---------------------------|---------------------------|---------------------------|
--------10-----------9-----|--------10-----------9-----|--------10-----------9-----|
-----9------9-----9-----9--|-----9------9-----9--------|-----9------9-----9-----9--|
--9------------9-----------|--9------------9--------9--|--9------------9-----------|
---------------------------|---------------------------|---------------------------|
---------------------------|---------------------------|---------------------------|


  PM PM  PM PM PM PM PM PM    PM PM  PM PM PM PM PM PM    PM PM  PM PM PM PM PM PM  
  E  E   E  E  E  E  E  E     E  E   E  E  E  E  E  E     E  E   E  E  E  E  E  E   
---------------------------|---------------------------|---------------------------|
--------10-----------9-----|--------10-----------9-----|--------10-----------9-----|
-----9------9-----9-----9--|-----9------9-----9-----9--|-----9------9-----9-----9--|
--9------------9-----------|--9------------9-----------|--9------------9-----------|
---------------------------|---------------------------|---------------------------|
---------------------------|---------------------------|---------------------------|


  PM PM  PM PM PM PM PM PM    PM PM  PM PM PM PM PM PM    PM PM  PM PM PM PM PM PM  
  E  E   E  E  E  E  E  E     E  E   E  E  E  E  E  E     E  E   E  E  E  E  E  E   
---------------------------|---------------------------|---------------------------|
--------10-----------9-----|--------10-----------9-----|--------10-----------9-----|
-----9------9-----9-----9--|-----9------9-----9-----9--|-----9------9-----9-----9--|
--9------------9-----------|--9------------9-----------|--9------------9-----------|
---------------------------|---------------------------|---------------------------|
---------------------------|---------------------------|---------------------------|


  PM PM  PM PM PM PM PM PM    PM PM  PM PM PM PM PM PM    PM PM  PM PM PM PM PM PM  
  E  E   E  E  E  E  E  E     E  E   E  E  E  E  E  E     E  E   E  E  E  E  E  E   
---------------------------|---------------------------|---------------------------|
--------10-----------9-----|--------10-----------9-----|--------10-----------9-----|
-----9------9-----9-----9--|-----9------9-----9-----9--|-----9------9-----9-----9--|
--9------------9-----------|--9------------9-----------|--9------------9-----------|
---------------------------|---------------------------|---------------------------|
---------------------------|---------------------------|---------------------------|


  PM PM  PM PM PM PM PM PM    PM PM  PM PM PM PM PM PM    PM PM  PM PM PM PM PM PM  
  E  E   E  E  E  E  E  E     E  E   E  E  E  E  E  E     E  E   E  E  E  E  E  E   
---------------------------|---------------------------|---------------------------|
--------10-----------9-----|--------10-----------9-----|--------10-----------9-----|
-----9------9-----9-----9--|-----9------9-----9-----9--|-----9------9-----9-----9--|
--9------------9-----------|--9------------9-----------|--9------------9-----------|
---------------------------|---------------------------|---------------------------|
---------------------------|---------------------------|---------------------------|


  PM PM  PM PM PM PM PM PM    PM PM  PM PM PM PM PM PM    PM PM  PM PM PM PM PM PM  
  E  E   E  E  E  E  E  E     E  E   E  E  E  E  E  E     E  E   E  E  E  E  E  E   
---------------------------|---------------------------|---------------------------|
--------10-----------9-----|--------10-----------9-----|--------10-----------9-----|
-----9------9-----9-----9--|-----9------9-----9-----9--|-----9------9-----9-----9--|
--9------------9-----------|--9------------9-----------|--9------------9-----------|
---------------------------|---------------------------|---------------------------|
---------------------------|---------------------------|---------------------------|


  PM PM  PM PM PM PM PM PM    PM PM PM PM PM PM PM PM    PM PM PM PM PM  PM PM PM  
  E  E   E  E  E  E  E  E     E  E  E  E  E  E  E  E     E  E  E  E  E   E  E  E   
---------------------------|--------------------------|---------------------------|
--------10-----------9-----|--------8-----------7-----|--------8--------10--7-----|
-----9------9-----9-----9--|-----7-----7-----7-----7--|-----7-----7------------7--|
--9------------9-----------|--7-----------7-----------|--7-----------7------------|
---------------------------|--------------------------|---------------------------|
---------------------------|--------------------------|---------------------------|


  PM PM PM PM PM PM PM PM    PM PM PM PM PM PM PM PM                                          
  E  E  E  E  E  E  E  E     E  E  E  E  E  E  E  E     W                   W                 
--------------------------|--------------------------|-------------------|-------------------|
--------8-----------7-----|--------8-----------7-----|-------------------|-------------------|
-----7-----7-----7-----7--|-----7-----7-----7-----7--|-------------------|-------------------|
--7-----------7-----------|--7-----------7-----------|-------------------|-------------------|
--------------------------|--------------------------|-------------------|-------------------|
--------------------------|--------------------------|-------------------|-------------------|


  W                   W                   W                   W                   W                 
-------------------|-------------------|-------------------|-------------------|-------------------|
-------------------|-------------------|-------------------|-------------------|-------------------|
-------------------|-------------------|-------------------|-------------------|-------------------|
-------------------|-------------------|-------------------|-------------------|-------------------|
-------------------|-------------------|-------------------|-------------------|-------------------|
-------------------|-------------------|-------------------|-------------------|-------------------|


                      PM PM  PM PM PM PM PM PM    PM PM  PM PM PM PM PM PM  
  W                   E  E   E  E  E  E  E  E     E  E   E  E  E  E  E  E   
-------------------|---------------------------|---------------------------|
-------------------|--------10-----------9-----|--------10-----------9-----|
-------------------|-----9------9-----9-----9--|-----9------9-----9-----9--|
-------------------|--9------------9-----------|--9------------9-----------|
-------------------|---------------------------|---------------------------|
-------------------|---------------------------|---------------------------|


  PM PM  PM PM PM PM PM PM    PM PM  PM PM PM PM PM PM    PM PM  PM PM PM PM PM PM  
  E  E   E  E  E  E  E  E     E  E   E  E  E  E  E  E     E  E   E  E  E  E  E  E   
---------------------------|---------------------------|---------------------------|
--------10-----------9-----|--------10-----------9-----|--------10-----------9-----|
-----9------9-----9-----9--|-----9------9-----9-----9--|-----9------9-----9-----9--|
--9------------9-----------|--9------------9-----------|--9------------9-----------|
---------------------------|---------------------------|---------------------------|
---------------------------|---------------------------|---------------------------|


  PM PM  PM PM PM PM PM PM    PM PM  PM PM PM PM PM PM    PM PM  PM PM PM PM PM PM  
  E  E   E  E  E  E  E  E     E  E   E  E  E  E  E  E     E  E   E  E  E  E  E  E   
---------------------------|---------------------------|---------------------------|
--------10-----------9-----|--------10-----------9-----|--------10-----------9-----|
-----9------9-----9-----9--|-----9------9-----9-----9--|-----9------9-----9-----9--|
--9------------9-----------|--9------------9-----------|--9------------9-----------|
---------------------------|---------------------------|---------------------------|
---------------------------|---------------------------|---------------------------|


  PM PM  PM PM PM PM PM PM    PM PM  PM PM PM PM PM PM    PM PM PM PM PM PM PM PM  
  E  E   E  E  E  E  E  E     E  E   E  E  E  E  E  E     E  E  E  E  E  E  E  E   
---------------------------|---------------------------|--------------------------|
--------10-----------9-----|--------10-----------9-----|--------8-----------7-----|
-----9------9-----9-----9--|-----9------9-----9-----9--|-----7-----7-----7-----7--|
--9------------9-----------|--9------------9-----------|--7-----------7-----------|
---------------------------|---------------------------|--------------------------|
---------------------------|---------------------------|--------------------------|


  PM PM PM PM PM  PM PM PM    PM PM PM PM PM PM PM PM    PM PM PM PM PM PM PM PM  
  E  E  E  E  E   E  E  E     E  E  E  E  E  E  E  E     E  E  E  E  E  E  E  E   
---------------------------|--------------------------|--------------------------|
--------8--------10--7-----|--------8-----------7-----|--------8-----------7-----|
-----7-----7------------7--|-----7-----7-----7-----7--|-----7-----7-----7-----7--|
--7-----------7------------|--7-----------7-----------|--7-----------7-----------|
---------------------------|--------------------------|--------------------------|
---------------------------|--------------------------|--------------------------|


  W                   W                   W                   W                   W                 
-------------------|-------------------|-------------------|-------------------|-------------------|
-------------------|-------------------|-------------------|-------------------|-------------------|
-------------------|-------------------|-------------------|-------------------|-------------------|
-------------------|-------------------|-------------------|-------------------|-------------------|
-------------------|-------------------|-------------------|-------------------|-------------------|
-------------------|-------------------|-------------------|-------------------|-------------------|


  W                   W                   W                   W                   W                 
-------------------|-------------------|-------------------|-------------------|-------------------|
-------------------|-------------------|-------------------|-------------------|-------------------|
-------------------|-------------------|-------------------|-------------------|-------------------|
-------------------|-------------------|-------------------|-------------------|-------------------|
-------------------|-------------------|-------------------|-------------------|-------------------|
-------------------|-------------------|-------------------|-------------------|-------------------|


  W                   W                   W                   W                   W                 
-------------------|-------------------|-------------------|-------------------|-------------------|
-------------------|-------------------|-------------------|-------------------|-------------------|
-------------------|-------------------|-------------------|-------------------|-------------------|
-------------------|-------------------|-------------------|-------------------|-------------------|
-------------------|-------------------|-------------------|-------------------|-------------------|
-------------------|-------------------|-------------------|-------------------|-------------------|


  W                   W                   W                   W                   W                 
-------------------|-------------------|-------------------|-------------------|-------------------|
-------------------|-------------------|-------------------|-------------------|-------------------|
-------------------|-------------------|-------------------|-------------------|-------------------|
-------------------|-------------------|-------------------|-------------------|-------------------|
-------------------|-------------------|-------------------|-------------------|-------------------|
-------------------|-------------------|-------------------|-------------------|-------------------|


  W                   W                   W                   W                 
-------------------|-------------------|-------------------|-------------------|
-------------------|-------------------|-------------------|-------------------|
-------------------|-------------------|-------------------|-------------------|
-------------------|-------------------|-------------------|-------------------|
-------------------|-------------------|-------------------|-------------------|
-------------------|-------------------|-------------------|-------------------|


  PM PM  PM PM PM PM PM PM    PM PM  PM PM PM PM PM PM    PM PM  PM PM PM PM PM PM  
  E  E   E  E  E  E  E  E     E  E   E  E  E  E  E  E     E  E   E  E  E  E  E  E   
---------------------------|---------------------------|---------------------------|
--------10-----------9-----|--------10-----------9-----|--------10-----------9-----|
-----9------9-----9-----9--|-----9------9-----9-----9--|-----9------9-----9-----9--|
--9------------9-----------|--9------------9-----------|--9------------9-----------|
---------------------------|---------------------------|---------------------------|
---------------------------|---------------------------|---------------------------|


  PM PM  PM PM PM PM PM PM    PM PM PM PM PM PM PM PM    PM PM PM PM PM  PM PM PM  
  E  E   E  E  E  E  E  E     E  E  E  E  E  E  E  E     E  E  E  E  E   E  E  E   
---------------------------|--------------------------|---------------------------|
--------10-----------9-----|--------8-----------7-----|--------8--------10--7-----|
-----9------9-----9-----9--|-----7-----7-----7-----7--|-----7-----7------------7--|
--9------------9-----------|--7-----------7-----------|--7-----------7------------|
---------------------------|--------------------------|---------------------------|
---------------------------|--------------------------|---------------------------|


  PM PM PM PM PM PM PM PM    PM PM PM PM PM PM PM PM                                          
  E  E  E  E  E  E  E  E     E  E  E  E  E  E  E  E     W                   W                 
--------------------------|--------------------------|-------------------|-------------------|
--------8-----------7-----|--------8-----------7-----|-------------------|-------------------|
-----7-----7-----7-----7--|-----7-----7-----7-----7--|-------------------|-------------------|
--7-----------7-----------|--7-----------7-----------|-------------------|-------------------|
--------------------------|--------------------------|-------------------|-------------------|
--------------------------|--------------------------|-------------------|-------------------|


  W                   W                   W                   W                   W                 
-------------------|-------------------|-------------------|-------------------|-------------------|
-------------------|-------------------|-------------------|-------------------|-------------------|
-------------------|-------------------|-------------------|-------------------|-------------------|
-------------------|-------------------|-------------------|-------------------|-------------------|
-------------------|-------------------|-------------------|-------------------|-------------------|
-------------------|-------------------|-------------------|-------------------|-------------------|


  W                   W                   W                   W                   W                 
-------------------|-------------------|-------------------|-------------------|-------------------|
-------------------|-------------------|-------------------|-------------------|-------------------|
-------------------|-------------------|-------------------|-------------------|-------------------|
-------------------|-------------------|-------------------|-------------------|-------------------|
-------------------|-------------------|-------------------|-------------------|-------------------|
-------------------|-------------------|-------------------|-------------------|-------------------|


  W                   W                   W                   W                   W                 
-------------------|-------------------|-------------------|-------------------|-------------------|
-------------------|-------------------|-------------------|-------------------|-------------------|
-------------------|-------------------|-------------------|-------------------|-------------------|
-------------------|-------------------|-------------------|-------------------|-------------------|
-------------------|-------------------|-------------------|-------------------|-------------------|
-------------------|-------------------|-------------------|-------------------|-------------------|


  W                   W                   W                   W                   W                 
-------------------|-------------------|-------------------|-------------------|-------------------|
-------------------|-------------------|-------------------|-------------------|-------------------|
-------------------|-------------------|-------------------|-------------------|-------------------|
-------------------|-------------------|-------------------|-------------------|-------------------|
-------------------|-------------------|-------------------|-------------------|-------------------|
-------------------|-------------------|-------------------|-------------------|-------------------|


  W                   W                   W                   W                   W                 
-------------------|-------------------|-------------------|-------------------|-------------------|
-------------------|-------------------|-------------------|-------------------|-------------------|
-------------------|-------------------|-------------------|-------------------|-------------------|
-------------------|-------------------|-------------------|-------------------|-------------------|
-------------------|-------------------|-------------------|-------------------|-------------------|
-------------------|-------------------|-------------------|-------------------|-------------------|


  W                   W                   W                   W                   W                 
-------------------|-------------------|-------------------|-------------------|-------------------|
-------------------|-------------------|-------------------|-------------------|-------------------|
-------------------|-------------------|-------------------|-------------------|-------------------|
-------------------|-------------------|-------------------|-------------------|-------------------|
-------------------|-------------------|-------------------|-------------------|-------------------|
-------------------|-------------------|-------------------|-------------------|-------------------|


  W                   W                   W                   W                  
-------------------|-------------------|-------------------|-------------------||
-------------------|-------------------|-------------------|-------------------||
-------------------|-------------------|-------------------|-------------------||
-------------------|-------------------|-------------------|-------------------||
-------------------|-------------------|-------------------|-------------------||
-------------------|-------------------|-------------------|-------------------||



Rhythm - left/right

     W                   W                   W                   W                 
E||-------------------|-------------------|-------------------|-------------------|
B||-------------------|-------------------|-------------------|-------------------|
G||-------------------|-------------------|-------------------|-------------------|
D||-------------------|-------------------|-------------------|-------------------|
A||-------------------|-------------------|-------------------|-------------------|
E||-------------------|-------------------|-------------------|-------------------|


  W                   W                   W                   W                   W                 
-------------------|-------------------|-------------------|-------------------|-------------------|
-------------------|-------------------|-------------------|-------------------|-------------------|
-------------------|-------------------|-------------------|-------------------|-------------------|
-------------------|-------------------|-------------------|-------------------|-------------------|
-------------------|-------------------|-------------------|-------------------|-------------------|
-------------------|-------------------|-------------------|-------------------|-------------------|


  W                   W                   W                   W                   W                 
-------------------|-------------------|-------------------|-------------------|-------------------|
-------------------|-------------------|-------------------|-------------------|-------------------|
-------------------|-------------------|-------------------|-------------------|-------------------|
-------------------|-------------------|-------------------|-------------------|-------------------|
-------------------|-------------------|--2----------------|--L----------------|-------------------|
-------------------|-------------------|--0----------------|--L----------------|-------------------|


  W                   W                   W                   W                   W                 
-------------------|-------------------|-------------------|-------------------|-------------------|
-------------------|-------------------|-------------------|-------------------|-------------------|
-------------------|-------------------|-------------------|-------------------|-------------------|
-------------------|-------------------|-------------------|-------------------|-------------------|
-------------------|-------------------|-------------------|-------------------|-------------------|
-------------------|-------------------|-------------------|-------------------|-------------------|


  W                   W                   W                   W                   W                 
-------------------|-------------------|-------------------|-------------------|-------------------|
-------------------|-------------------|-------------------|-------------------|-------------------|
-------------------|-------------------|-------------------|-------------------|-------------------|
-------------------|-------------------|-------------------|-------------------|-------------------|
-------------------|-------------------|-------------------|-------------------|-------------------|
-------------------|-------------------|-------------------|-------------------|-------------------|


  W                   W                   H        Q     Q        E   E  E  E  E  E  E  E   
-------------------|-------------------|-----------------------|---------------------------|
-------------------|-------------------|-----------------------|-----10-----9-----7-----5--|
-------------------|-------------------|-----------------------|------9-----9-----8-----6--|
-------------------|-------------------|-----------------------|------9-----9-----9-----7--|
-------------------|-------------------|-----------------------|---------------------------|
-------------------|-------------------|----------------12\----|---------------------------|


  Q    E  E  Q    E  E     E   E  E  E  E  E  E  E     Q    E   E   Q     Q      
------------------------|---------------------------|---------------------------|
--L----L--7--L----x--x--|--x--10-----9-----7-----8--|--L----L--10---L-----------|
--L----L--7--L----x--x--|--x---9-----9-----8-----7--|--L----L---9---L-----------|
--L----L--7--L----x--x--|--x---9-----9-----9-----5--|--L----L---7---L-----------|
----------5--L----------|---------------------------|---------------------------|
------------------------|---------------------------|--------------------12\----|


  E   E  E  E  E  E  E  E     Q    E  E  Q    E  E     E   E  E  E  E  E  E  E   
---------------------------|------------------------|---------------------------|
-----10-----9-----7-----5--|--L----L--7--L----x--x--|--x--10-----9-----7-----8--|
------9-----9-----8-----6--|--L----L--7--L----x--x--|--x---9-----9-----8-----7--|
------9-----9-----9-----7--|--L----L--7--L----x--x--|--x---9-----9-----9-----5--|
---------------------------|----------5--L----------|---------------------------|
---------------------------|------------------------|---------------------------|


  Q    E   E   Q     Q        W                   W                   W                 
---------------------------|-------------------|-------------------|-------------------|
--L----L--10---L-----------|-------------------|-------------------|-------------------|
--L----L---9---L-----------|-------------------|-------------------|-------------------|
--L----L---7---L-----------|-------------------|-------------------|-------------------|
---------------------------|--7----------------|--L----------------|-------------------|
--------------------12\----|-------------------|-------------------|-------------------|


  W                   W                   W                   W                   W                 
-------------------|-------------------|-------------------|-------------------|-------------------|
-------------------|-------------------|-------------------|-------------------|-------------------|
-------------------|-------------------|-------------------|-------------------|-------------------|
-------------------|-------------------|-------------------|-------------------|-------------------|
-------------------|-------------------|-------------------|-------------------|-------------------|
-------------------|-------------------|-------------------|-------------------|-------------------|


  W                   W                   W                   W                   W                 
-------------------|-------------------|-------------------|-------------------|-------------------|
-------------------|-------------------|-------------------|-------------------|-------------------|
-------------------|-------------------|-------------------|-------------------|-------------------|
-------------------|-------------------|-------------------|-------------------|-------------------|
-------------------|-------------------|-------------------|-------------------|-------------------|
-------------------|-------------------|-------------------|-------------------|-------------------|


  Q    H          Q        E   E  E  E  E  E  E  E     Q    E  S S Q    E  E   
------------------------|---------------------------|-------------------------|
------------------------|-----10-----9-----7-----5--|--L----L--7-7-7----x--x--|
-------7~---------------|------9-----9-----8-----6--|--L----L--7-7-7----x--x--|
------------------------|------9-----9-----9-----7--|--L----L--7-7-7----x--x--|
------------------------|---------------------------|----------5-5-5----------|
-----------------12\----|---------------------------|-------------------------|


  E   E  E  E  E  E  E  E     Q    E   E   Q     Q        E   E  E  E  E  E  E  S S  
---------------------------|---------------------------|----------------------------|
--x--10-----9-----7-----8--|--L----L--10---L-----------|-----10-----9-----7-----5-5-|
--x---9-----9-----8-----7--|--L----L---9---L-----------|------9-----9-----8-----6-6-|
--x---9-----9-----9-----5--|--L----L---7---L-----------|------9-----9-----9-----7-7-|
---------------------------|---------------------------|----------------------------|
---------------------------|--------------------12\----|----------------------------|


  Q    E  S S Q    E  E     E   E  E  E  E  E  E  E     Q    E   E   Q     Q      
-------------------------|---------------------------|---------------------------|
--5----L--7-7-7----x--x--|--x--10-----9-----7-----8--|--L----L--10---L-----------|
--6----L--7-7-7----x--x--|--x---9-----9-----8-----7--|--L----L---9---L-----------|
--7----L--7-7-7----x--x--|--x---9-----9-----9-----5--|--L----L---7---L-----------|
----------5-5-5----------|---------------------------|---------------------------|
-------------------------|---------------------------|--------------------12\----|


  E   E  E  E  E  E  E  E     Q    E  E  Q    E  E     E   E  E  E  E  E  E  E   
---------------------------|------------------------|---------------------------|
-----10-----9-----7-----5--|--L----L--7--L----x--x--|--x--10-----9-----7-----8--|
------9-----9-----8-----6--|--L----L--7--L----x--x--|--x---9-----9-----8-----7--|
------9-----9-----9-----7--|--L----L--7--L----x--x--|--x---9-----9-----9-----5--|
---------------------------|----------5--L----------|---------------------------|
---------------------------|------------------------|---------------------------|


  Q    E   E   Q     Q        E   E  E  E  E  E  E  E     Q    E  E  Q    E  E   
---------------------------|---------------------------|------------------------|
--L----L--10---L-----------|-----10-----9-----7-----5--|--L----L--7--L----x--x--|
--L----L---9---L-----------|------9-----9-----8-----6--|--L----L--7--L----x--x--|
--L----L---7---L-----------|------9-----9-----9-----7--|--L----L--7--L----x--x--|
---------------------------|---------------------------|----------5--L----------|
--------------------12\----|---------------------------|------------------------|


  E   E  E  E  E  E  E  E     Q    E   E   Q     Q        E   E  E  E  E  E  E  E   
---------------------------|---------------------------|---------------------------|
--x--10-----9-----7-----8--|--L----L--10---L-----------|-----10-----9-----7-----5--|
--x---9-----9-----8-----7--|--L----L---9---L-----------|------9-----9-----8-----6--|
--x---9-----9-----9-----5--|--L----L---7---L-----------|------9-----9-----9-----7--|
---------------------------|---------------------------|---------------------------|
---------------------------|--------------------12\----|---------------------------|


  Q    E  E  Q    E  E     E   E  E  E  E  E  E  E     Q    E   E   Q     Q      
------------------------|---------------------------|---------------------------|
--L----L--7--L----x--x--|--x--10-----9-----7-----8--|--L----L--10---L-----------|
--L----L--7--L----x--x--|--x---9-----9-----8-----7--|--L----L---9---L-----------|
--L----L--7--L----x--x--|--x---9-----9-----9-----5--|--L----L---7---L-----------|
----------5--L----------|---------------------------|---------------------------|
------------------------|---------------------------|--------------------12\----|


  E   E  E  E  E  E  E  E     Q    E  E  Q    E  E     E   E  E  E  E  E  E  E   
---------------------------|------------------------|---------------------------|
-----10-----9-----7-----5--|--L----L--7--L----x--x--|--x--10-----9-----7-----8--|
------9-----9-----8-----6--|--L----L--7--L----x--x--|--x---9-----9-----8-----7--|
------9-----9-----9-----7--|--L----L--7--L----x--x--|--x---9-----9-----9-----5--|
---------------------------|----------5--L----------|---------------------------|
---------------------------|------------------------|---------------------------|


  Q    E   E   Q     Q        W                   W                   W                 
---------------------------|-------------------|-------------------|-------------------|
--L----L--10---L-----------|-------------------|-------------------|-------------------|
--L----L---9---L-----------|-------------------|-------------------|-------------------|
--L----L---7---L-----------|-------------------|-------------------|-------------------|
---------------------------|-------------------|-------------------|-------------------|
--------------------12\----|-------------------|-------------------|-------------------|


  W                   W                   W                   W                 
-------------------|-------------------|-------------------|-------------------|
-------------------|-------------------|-------------------|-------------------|
-------------------|-------------------|-------------------|-------------------|
-------------------|-------------------|-------------------|-------------------|
-------------------|-------------------|-------------------|-------------------|
-------------------|-------------------|-------------------|-------------------|


  H        Q     Q        E   E  E  E  E  E  E  E     Q    E  E  Q    E  E   
-----------------------|---------------------------|------------------------|
-----------------------|-----10-----9-----7-----5--|--L----L--7--L----x--x--|
-----------------------|------9-----9-----8-----6--|--L----L--7--L----x--x--|
-----------------------|------9-----9-----9-----7--|--L----L--7--L----x--x--|
-----------------------|---------------------------|----------5--L----------|
----------------12\----|---------------------------|------------------------|


  E   E  E  E  E  E  E  E     Q    E   E   Q     Q        E   E  E  E  E  E  E  E   
---------------------------|---------------------------|---------------------------|
--x--10-----9-----7-----8--|--L----L--10---L-----------|-----10-----9-----7-----5--|
--x---9-----9-----8-----7--|--L----L---9---L-----------|------9-----9-----8-----6--|
--x---9-----9-----9-----5--|--L----L---7---L-----------|------9-----9-----9-----7--|
---------------------------|---------------------------|---------------------------|
---------------------------|--------------------12\----|---------------------------|


  Q    E  E  Q    E  E     E   E  E  E  E  E  E  E     Q    E   E   Q     Q      
------------------------|---------------------------|---------------------------|
--L----L--7--L----x--x--|--x--10-----9-----7-----8--|--L----L--10---L-----------|
--L----L--7--L----x--x--|--x---9-----9-----8-----7--|--L----L---9---L-----------|
--L----L--7--L----x--x--|--x---9-----9-----9-----5--|--L----L---7---L-----------|
----------5--L----------|---------------------------|---------------------------|
------------------------|---------------------------|--------------------12\----|


  E   E  E  E  E  E  E  E     Q    E  E  Q    E  E     E   E  E  E  E  E  E  E   
---------------------------|------------------------|---------------------------|
-----10-----9-----7-----5--|--L----L--7--L----x--x--|--x--10-----9-----7-----8--|
------9-----9-----8-----6--|--L----L--7--L----x--x--|--x---9-----9-----8-----7--|
------9-----9-----9-----7--|--L----L--7--L----x--x--|--x---9-----9-----9-----5--|
---------------------------|----------5--L----------|---------------------------|
---------------------------|------------------------|---------------------------|


  Q    E   E   Q     Q        E   E  E  E  E  E  E  E     Q    E  E  Q    E  E   
---------------------------|---------------------------|------------------------|
--L----L--10---L-----------|-----10-----9-----7-----5--|--L----L--7--L----x--x--|
--L----L---9---L-----------|------9-----9-----8-----6--|--L----L--7--L----x--x--|
--L----L---7---L-----------|------9-----9-----9-----7--|--L----L--7--L----x--x--|
---------------------------|---------------------------|----------5--L----------|
--------------------12\----|---------------------------|------------------------|


  E   E  E  E  E  E  E  E     Q    E   E   Q     Q        E   E  E  E  E  E  E  E   
---------------------------|---------------------------|---------------------------|
--x--10-----9-----7-----8--|--L----L--10---L-----------|-----10-----9-----7-----5--|
--x---9-----9-----8-----7--|--L----L---9---L-----------|------9-----9-----8-----6--|
--x---9-----9-----9-----5--|--L----L---7---L-----------|------9-----9-----9-----7--|
---------------------------|---------------------------|---------------------------|
---------------------------|--------------------12\----|---------------------------|


  Q    E  E  Q    E  E     E   E  E  E  E  E  E  E     Q    E   E   Q     Q      
------------------------|---------------------------|---------------------------|
--L----L--7--L----x--x--|--x--10-----9-----7-----8--|--L----L--10---L-----------|
--L----L--7--L----x--x--|--x---9-----9-----8-----7--|--L----L---9---L-----------|
--L----L--7--L----x--x--|--x---9-----9-----9-----5--|--L----L---7---L-----------|
----------5--L----------|---------------------------|---------------------------|
------------------------|---------------------------|--------------------12\----|


  E   E  E  E  E  E  E  E     Q    E  E  Q    E  E     E   E  E  E  E  E  E  E   
---------------------------|------------------------|---------------------------|
-----10-----9-----7-----5--|--L----L--7--L----x--x--|--x--10-----9-----7-----8--|
------9-----9-----8-----6--|--L----L--7--L----x--x--|--x---9-----9-----8-----7--|
------9-----9-----9-----7--|--L----L--7--L----x--x--|--x---9-----9-----9-----5--|
---------------------------|----------5--L----------|---------------------------|
---------------------------|------------------------|---------------------------|


  Q    E   E   Q     Q        E   E  E  E  E  E  E  E     Q    E  E  Q    E  E   
---------------------------|---------------------------|------------------------|
--L----L--10---L-----------|-----10-----9-----7-----5--|--L----L--7--L----x--x--|
--L----L---9---L-----------|------9-----9-----8-----6--|--L----L--7--L----x--x--|
--L----L---7---L-----------|------9-----9-----9-----7--|--L----L--7--L----x--x--|
---------------------------|---------------------------|----------5--L----------|
--------------------12\----|---------------------------|------------------------|


  E   E  E  E  E  E  E  E     Q    E   E   Q     Q        E   E  E  E  E  E  E  E   
---------------------------|---------------------------|---------------------------|
--x--10-----9-----7-----8--|--L----L--10---L-----------|-----10-----9-----7-----5--|
--x---9-----9-----8-----7--|--L----L---9---L-----------|------9-----9-----8-----6--|
--x---9-----9-----9-----5--|--L----L---7---L-----------|------9-----9-----9-----7--|
---------------------------|---------------------------|---------------------------|
---------------------------|--------------------12\----|---------------------------|


  Q    E  E  Q    E  E     E   E  E  E  E  E  E  E     Q    E   E   Q     Q      
------------------------|---------------------------|---------------------------|
--L----L--7--L----x--x--|--x--10-----9-----7-----8--|--L----L--10---L-----------|
--L----L--7--L----x--x--|--x---9-----9-----8-----7--|--L----L---9---L-----------|
--L----L--7--L----x--x--|--x---9-----9-----9-----5--|--L----L---7---L-----------|
----------5--L----------|---------------------------|---------------------------|
------------------------|---------------------------|--------------------12\----|


  W                   W                   W                   W                  
-------------------|-------------------|-------------------|-------------------||
-------------------|-------------------|-------------------|-------------------||
-------------------|-------------------|-------------------|-------------------||
-------------------|-------------------|-------------------|-------------------||
-------------------|-------------------|-------------------|-------------------||
-------------------|-------------------|-------------------|-------------------||




Rhythm - center

     W                   W                   W                   W                 
E||-------------------|-------------------|-------------------|-------------------|
B||-------------------|-------------------|-------------------|-------------------|
G||-------------------|-------------------|-------------------|-------------------|
D||-------------------|-------------------|-------------------|-------------------|
A||-------------------|-------------------|-------------------|-------------------|
E||-------------------|-------------------|-------------------|-------------------|


  W                   W                   W                   W                   W                 
-------------------|-------------------|-------------------|-------------------|-------------------|
-------------------|-------------------|-------------------|-------------------|-------------------|
-------------------|-------------------|-------------------|-------------------|-------------------|
-------------------|-------------------|-------------------|-------------------|-------------------|
-------------------|-------------------|-------------------|-------------------|-------------------|
-------------------|-------------------|-------------------|-------------------|-------------------|


  W                   W                   W                   W                   W                 
-------------------|-------------------|-------------------|-------------------|-------------------|
-------------------|-------------------|-------------------|-------------------|-------------------|
-------------------|-------------------|-------------------|-------------------|-------------------|
-------------------|-------------------|-------------------|-------------------|-------------------|
-------------------|-------------------|-------------------|-------------------|-------------------|
-------------------|-------------------|-------------------|-------------------|-------------------|


  W                   W                   W                   W                   W                 
-------------------|-------------------|-------------------|-------------------|-------------------|
-------------------|-------------------|-------------------|-------------------|-------------------|
-------------------|-------------------|-------------------|-------------------|-------------------|
-------------------|-------------------|-------------------|-------------------|-------------------|
-------------------|-------------------|-------------------|-------------------|-------------------|
-------------------|-------------------|-------------------|-------------------|-------------------|


  W                   W                   W                   W                   W                 
-------------------|-------------------|-------------------|-------------------|-------------------|
-------------------|-------------------|-------------------|-------------------|-------------------|
-------------------|-------------------|-------------------|-------------------|-------------------|
-------------------|-------------------|-------------------|-------------------|-------------------|
-------------------|-------------------|-------------------|-------------------|-------------------|
-------------------|-------------------|-------------------|-------------------|-------------------|


  W                   W                   W                   W                   W                 
-------------------|-------------------|-------------------|-------------------|-------------------|
-------------------|-------------------|-------------------|-------------------|-------------------|
-------------------|-------------------|-------------------|-------------------|-------------------|
-------------------|-------------------|-------------------|-------------------|-------------------|
-------------------|-------------------|-------------------|-------------------|-------------------|
-------------------|-------------------|-------------------|-------------------|-------------------|


  H        Q    E   E      Q     E   E   Q     Q        W                   W                 
-----------------------|-----------------------------|-------------------|-------------------|
-------------------12--|--12-----L--14---L-----------|-------------------|-------------------|
-------------------12--|--12-----L--14---L-----------|-------------------|-------------------|
-------------------12--|--12-----L--14---L-----------|-------------------|-------------------|
-----------------------|-----------------------------|-------------------|-------------------|
-----------------------|----------------------12\----|-------------------|-------------------|


  H        Q    E   E      Q     E   E   Q     Q        W                   W                 
-----------------------|-----------------------------|-------------------|-------------------|
-------------------12--|--12-----L--14---L-----------|-------------------|-------------------|
-------------------12--|--12-----L--14---L-----------|-------------------|-------------------|
-------------------12--|--12-----L--14---L-----------|-------------------|-------------------|
-----------------------|-----------------------------|-------------------|-------------------|
-----------------------|----------------------12\----|-------------------|-------------------|


  W                   W                   W                   W                   W                 
-------------------|-------------------|-------------------|-------------------|-------------------|
-------------------|-------------------|-------------------|-------------------|-------------------|
-------------------|-------------------|-------------------|-------------------|-------------------|
-------------------|-------------------|-------------------|-------------------|-------------------|
-------------------|-------------------|-------------------|-------------------|-------------------|
-------------------|-------------------|-------------------|-------------------|-------------------|


  W                   W                   W                   W                   W                 
-------------------|-------------------|-------------------|-------------------|-------------------|
-------------------|-------------------|-------------------|-------------------|-------------------|
-------------------|-------------------|-------------------|-------------------|-------------------|
-------------------|-------------------|-------------------|-------------------|-------------------|
-------------------|-------------------|-------------------|-------------------|-------------------|
-------------------|-------------------|-------------------|-------------------|-------------------|


  W                   W                   W                   W                 
-------------------|-------------------|-------------------|-------------------|
-------------------|-------------------|-------------------|-------------------|
-------------------|-------------------|-------------------|-------------------|
-------------------|-------------------|-------------------|-------------------|
-------------------|-------------------|-------------------|-------------------|
-------------------|-------------------|-------------------|-------------------|


  H        Q    E   E      Q     E   E   Q     Q       W                   W                 
-----------------------|----------------------------|-------------------|-------------------|
-------------------12--|--12-----L--14---L----------|-------------------|-------------------|
-------------------12--|--12-----L--14---L----------|-------------------|-------------------|
-------------------12--|--12-----L--14---L----------|-------------------|-------------------|
-----------------------|----------------------------|-------------------|-------------------|
-----------------------|----------------------12----|-------------------|-------------------|


  H        Q    E   E      Q     E   E   Q     Q       W                   W                 
-----------------------|----------------------------|-------------------|-------------------|
-------------------12--|--12-----L--14---L----------|-------------------|-------------------|
-------------------12--|--12-----L--14---L----------|-------------------|-------------------|
-------------------12--|--12-----L--14---L----------|-------------------|-------------------|
-----------------------|----------------------------|-------------------|-------------------|
-----------------------|----------------------12----|-------------------|-------------------|


  H        Q    E   E      Q     E   E   Q     Q       W                   W                 
-----------------------|----------------------------|-------------------|-------------------|
-------------------12--|--12-----L--14---L----------|-------------------|-------------------|
-------------------12--|--12-----L--14---L----------|-------------------|-------------------|
-------------------12--|--12-----L--14---L----------|-------------------|-------------------|
-----------------------|----------------------------|--7----------------|--L----------------|
-----------------------|----------------------12----|-------------------|-------------------|


  H        Q    E   E      Q     E   E   Q     Q        W                   W                 
-----------------------|-----------------------------|-------------------|-------------------|
-------------------12--|--12-----L--14---L-----------|-------------------|-------------------|
-------------------12--|--12-----L--14---L-----------|-------------------|-------------------|
-------------------12--|--12-----L--14---L-----------|-------------------|-------------------|
-----------------------|-----------------------------|-------------------|-------------------|
-----------------------|----------------------12\----|-------------------|-------------------|


  H        Q    E   E      Q     E   E   Q     Q        W                   W                 
-----------------------|-----------------------------|-------------------|-------------------|
-------------------12--|--12-----L--14---L-----------|-------------------|-------------------|
-------------------12--|--12-----L--14---L-----------|-------------------|-------------------|
-------------------12--|--12-----L--14---L-----------|-------------------|-------------------|
-----------------------|-----------------------------|-------------------|-------------------|
-----------------------|----------------------12\----|-------------------|-------------------|


  H        Q    E   E      Q     E   E   Q     Q        W                   W                 
-----------------------|-----------------------------|-------------------|-------------------|
-------------------12--|--12-----L--14---L-----------|-------------------|-------------------|
-------------------12--|--12-----L--14---L-----------|-------------------|-------------------|
-------------------12--|--12-----L--14---L-----------|-------------------|-------------------|
-----------------------|-----------------------------|-------------------|-------------------|
-----------------------|----------------------12\----|-------------------|-------------------|


  W                   W                   W                   W                   W                 
-------------------|-------------------|-------------------|-------------------|-------------------|
-------------------|-------------------|-------------------|-------------------|-------------------|
-------------------|-------------------|-------------------|-------------------|-------------------|
-------------------|-------------------|-------------------|-------------------|-------------------|
-------------------|-------------------|-------------------|-------------------|-------------------|
-------------------|-------------------|-------------------|-------------------|-------------------|


  W                   W                   W                   H        Q    E   E   
-------------------|-------------------|-------------------|-----------------------|
-------------------|-------------------|-------------------|-------------------12--|
-------------------|-------------------|-------------------|-------------------12--|
-------------------|-------------------|-------------------|-------------------12--|
-------------------|-------------------|-------------------|-----------------------|
-------------------|-------------------|-------------------|-----------------------|


   Q     E   E   Q     Q        W                   W                   H        Q    E   E   
-----------------------------|-------------------|-------------------|-----------------------|
--12-----L--14---L-----------|-------------------|-------------------|-------------------12--|
--12-----L--14---L-----------|-------------------|-------------------|-------------------12--|
--12-----L--14---L-----------|-------------------|-------------------|-------------------12--|
-----------------------------|-------------------|-------------------|-----------------------|
----------------------12\----|-------------------|-------------------|-----------------------|


   Q     E   E   Q     Q        W                   W                   H        Q    E   E   
-----------------------------|-------------------|-------------------|-----------------------|
--12-----L--14---L-----------|-------------------|-------------------|-------------------12--|
--12-----L--14---L-----------|-------------------|-------------------|-------------------12--|
--12-----L--14---L-----------|-------------------|-------------------|-------------------12--|
-----------------------------|-------------------|-------------------|-----------------------|
----------------------12\----|-------------------|-------------------|-----------------------|


   Q     E   E   Q     Q       W                   W                   H        Q    E   E   
----------------------------|-------------------|-------------------|-----------------------|
--12-----L--14---L----------|-------------------|-------------------|-------------------12--|
--12-----L--14---L----------|-------------------|-------------------|-------------------12--|
--12-----L--14---L----------|-------------------|-------------------|-------------------12--|
----------------------------|-------------------|-------------------|-----------------------|
----------------------12----|-------------------|-------------------|-----------------------|


   Q     E   E   Q     Q       W                   W                   H        Q    E   E   
----------------------------|-------------------|-------------------|-----------------------|
--12-----L--14---L----------|-------------------|-------------------|-------------------12--|
--12-----L--14---L----------|-------------------|-------------------|-------------------12--|
--12-----L--14---L----------|-------------------|-------------------|-------------------12--|
----------------------------|-------------------|-------------------|-----------------------|
----------------------12----|-------------------|-------------------|-----------------------|


   Q     E   E   Q     Q       W                   W                   W                 
----------------------------|-------------------|-------------------|-------------------|
--12-----L--14---L----------|-------------------|-------------------|-------------------|
--12-----L--14---L----------|-------------------|-------------------|-------------------|
--12-----L--14---L----------|-------------------|-------------------|-------------------|
----------------------------|-------------------|-------------------|-------------------|
----------------------12----|-------------------|-------------------|-------------------|


  W                   W                   W                   W                   W                 
-------------------|-------------------|-------------------|-------------------|-------------------|
-------------------|-------------------|-------------------|-------------------|-------------------|
-------------------|-------------------|-------------------|-------------------|-------------------|
-------------------|-------------------|-------------------|-------------------|-------------------|
-------------------|-------------------|-------------------|-------------------|-------------------|
-------------------|-------------------|-------------------|-------------------|-------------------|


  W                   W                   W                   W                   W                 
-------------------|-------------------|-------------------|-------------------|-------------------|
-------------------|-------------------|-------------------|-------------------|-------------------|
-------------------|-------------------|-------------------|-------------------|-------------------|
-------------------|-------------------|-------------------|-------------------|-------------------|
-------------------|-------------------|-------------------|-------------------|-------------------|
-------------------|-------------------|-------------------|-------------------|-------------------|


  W                   W                   W                  
-------------------|-------------------|-------------------||
-------------------|-------------------|-------------------||
-------------------|-------------------|-------------------||
-------------------|-------------------|-------------------||
-------------------|-------------------|-------------------||
-------------------|-------------------|-------------------||



Lead

     W                   W                   W                   W                 
E||-------------------|-------------------|-------------------|-------------------|
B||-------------------|-------------------|-------------------|-------------------|
G||-------------------|-------------------|-------------------|-------------------|
D||-------------------|-------------------|-------------------|-------------------|
A||-------------------|-------------------|-------------------|-------------------|
E||-------------------|-------------------|-------------------|-------------------|


  W                   W                   W                   W                   W                 
-------------------|-------------------|-------------------|-------------------|-------------------|
-------------------|-------------------|-------------------|-------------------|-------------------|
-------------------|-------------------|-------------------|-------------------|-------------------|
-------------------|-------------------|-------------------|-------------------|-------------------|
-------------------|-------------------|-------------------|-------------------|-------------------|
-------------------|-------------------|-------------------|-------------------|-------------------|


  W                   W                   W                   W                   W                 
-------------------|-------------------|-------------------|-------------------|-------------------|
-------------------|-------------------|-------------------|-------------------|-------------------|
-------------------|-------------------|-------------------|-------------------|-------------------|
-------------------|-------------------|-------------------|-------------------|-------------------|
-------------------|-------------------|-------------------|-------------------|-------------------|
-------------------|-------------------|-------------------|-------------------|-------------------|


  W                   W                   W                   W                   W                 
-------------------|-------------------|-------------------|-------------------|-------------------|
-------------------|-------------------|-------------------|-------------------|-------------------|
-------------------|-------------------|-------------------|-------------------|-------------------|
-------------------|-------------------|-------------------|-------------------|-------------------|
-------------------|-------------------|-------------------|-------------------|-------------------|
-------------------|-------------------|-------------------|-------------------|-------------------|


  W                   W                   W                   W                   W                 
-------------------|-------------------|-------------------|-------------------|-------------------|
-------------------|-------------------|-------------------|-------------------|-------------------|
-------------------|-------------------|-------------------|-------------------|-------------------|
-------------------|-------------------|-------------------|-------------------|-------------------|
-------------------|-------------------|-------------------|-------------------|-------------------|
-------------------|-------------------|-------------------|-------------------|-------------------|


  W                   W                   W                   W                   W                 
-------------------|-------------------|-------------------|-------------------|-------------------|
-------------------|-------------------|-------------------|-------------------|-------------------|
-------------------|-------------------|-------------------|-------------------|-------------------|
-------------------|-------------------|-------------------|-------------------|-------------------|
-------------------|-------------------|-------------------|-------------------|-------------------|
-------------------|-------------------|-------------------|-------------------|-------------------|


  W                   Q    E  E  Q     Q        W                   W                 
-------------------|-------------------------|-------------------|-------------------|
-------------------|-------------------------|-------------------|-------------------|
-------------------|-------------------------|-------------------|-------------------|
-------------------|-------7--7--L-----------|-------------------|-------------------|
-------------------|-------------------------|-------------------|-------------------|
-------------------|-------5--5--L----12\----|-------------------|-------------------|


  W                   W                   W                   W                   W                 
-------------------|-------------------|-------------------|-------------------|-------------------|
-------------------|-------------------|-------------------|-------------------|-------------------|
-------------------|-------------------|-------------------|-------------------|-------------------|
-------------------|-------------------|-------------------|-------------------|-------------------|
-------------------|-------------------|-------------------|-------------------|-------------------|
-------------------|-------------------|-------------------|-------------------|-------------------|


  W                   W                   W                   W                   W                 
-------------------|-------------------|-------------------|-------------------|-------------------|
-------------------|-------------------|-------------------|-------------------|-------------------|
-------------------|-------------------|-------------------|-------------------|-------------------|
-------------------|-------------------|-------------------|-------------------|-------------------|
-------------------|-------------------|-------------------|-------------------|-------------------|
-------------------|-------------------|-------------------|-------------------|-------------------|


  W                   W                   W                   W                   W                 
-------------------|-------------------|-------------------|-------------------|-------------------|
-------------------|-------------------|-------------------|-------------------|-------------------|
-------------------|-------------------|-------------------|-------------------|-------------------|
-------------------|-------------------|-------------------|-------------------|-------------------|
-------------------|-------------------|-------------------|-------------------|-------------------|
-------------------|-------------------|-------------------|-------------------|-------------------|


  W                   W                   W                   W                 
-------------------|-------------------|-------------------|-------------------|
-------------------|-------------------|-------------------|-------------------|
-------------------|-------------------|-------------------|-------------------|
-------------------|-------------------|-------------------|-------------------|
-------------------|-------------------|-------------------|-------------------|
-------------------|-------------------|-------------------|-------------------|


  Q    E  E  Q     Q        W                   W                   W                 
-------------------------|-------------------|-------------------|-------------------|
-------------------------|-------------------|-------------------|-------------------|
-------------------------|-------------------|-------------------|-------------------|
-------7--7--L-----------|-------------------|-------------------|-------------------|
-------------------------|-------------------|-------------------|-------------------|
-------5--5--L----12\----|-------------------|-------------------|-------------------|


  W                    H         E  E  E  E     Q    E   E   E.   S  Q        W                 
-------------------|-------------------------|-----------------------------|-------------------|
-------------------|--12--------12-----------|-----------------------------|-------------------|
-------------------|----------------9--9--9--|--L----L--11---L----x--L\----|-------------------|
-------------------|-------------------------|--------------------x--L\----|-------------------|
-------------------|-------------------------|-----------------------------|-------------------|
-------------------|-------------------------|-----------------------------|-------------------|


  Q    E  E  Q     Q        W                   W                   W                 
-------------------------|-------------------|-------------------|-------------------|
-------------------------|-------------------|-------------------|-------------------|
-------------------------|-------------------|-------------------|-------------------|
-------7--7--L-----------|-------------------|-------------------|-------------------|
-------------------------|-------------------|-------------------|-------------------|
-------5--5--L----12\----|-------------------|-------------------|-------------------|


  W                    Q      Q      Q     E  E      Q    E   E    H         
-------------------|------------------------------|-------------------------|
-------------------|--15b----15b----15b-----------|-------------------------|
-------------------|-----------------------9--9~--|--L----L--11~---L--------|
-------------------|------------------------------|-------------------------|
-------------------|------------------------------|-------------------------|
-------------------|------------------------------|-------------------------|


  E   E    E   E    Q    Q        H          S  S  S  S  Q      
-------------------------------|------------12p-9--------------|
------9----L---9----L----7-----|--5~--------------12p-9--------|
-----11b---L--11b---L----9b----|--7~--------------------11b----|
-------------------------------|-------------------------------|
-------------------------------|-------------------------------|
-------------------------------|-------------------------------|


  Q     E   S   S  E    E   E    S  S     E    S  S  E    S  S  E    S  S  S   S  E    
---------------12------12-------12-12-|-------12-12------12-12------12-12-----12-14b--|
-----------15b----15b------15b--------|--15b--------15b--------15b--------15b---------|
--9~----L-----------------------------|-----------------------------------------------|
--------------------------------------|-----------------------------------------------|
--------------------------------------|-----------------------------------------------|
--------------------------------------|-----------------------------------------------|


   Q     E.     S    E      E   E   E      E   E   E    E   E   E   Q         W                 
---L----14pb---14pb-14pbr--14--12--15--|---L--14--12--/17---L--15--19b----|--19----------------|
---------------------------------------|----------------------------------|--------------------|
---------------------------------------|----------------------------------|--------------------|
---------------------------------------|----------------------------------|--------------------|
---------------------------------------|----------------------------------|--------------------|
---------------------------------------|----------------------------------|--------------------|


  W                   W                   W                   W                   W                 
-------------------|-------------------|-------------------|-------------------|-------------------|
-------------------|-------------------|-------------------|-------------------|-------------------|
-------------------|-------------------|-------------------|-------------------|-------------------|
-------------------|-------------------|-------------------|-------------------|-------------------|
-------------------|-------------------|-------------------|-------------------|-------------------|
-------------------|-------------------|-------------------|-------------------|-------------------|


  W                   W                   W                   W                   W                 
-------------------|-------------------|-------------------|-------------------|-------------------|
-------------------|-------------------|-------------------|-------------------|-------------------|
-------------------|-------------------|-------------------|-------------------|-------------------|
-------------------|-------------------|-------------------|-------------------|-------------------|
-------------------|-------------------|-------------------|-------------------|-------------------|
-------------------|-------------------|-------------------|-------------------|-------------------|


  W                   W                   W                   W                   W                 
-------------------|-------------------|-------------------|-------------------|-------------------|
-------------------|-------------------|-------------------|-------------------|-------------------|
-------------------|-------------------|-------------------|-------------------|-------------------|
-------------------|-------------------|-------------------|-------------------|-------------------|
-------------------|-------------------|-------------------|-------------------|-------------------|
-------------------|-------------------|-------------------|-------------------|-------------------|


  H        E   E  E  E     Q    E   E   E.   S  Q        W                 
------------------------|-----------------------------|-------------------|
--------------12--------|-----------------------------|-------------------|
------------------9--9--|--L----L--11---L----x--L\----|-------------------|
------------------------|--------------------x--L\----|-------------------|
------------------------|-----------------------------|-------------------|
------------------------|-----------------------------|-------------------|


  Q    E  E  Q     Q        W                   W                   W                 
-------------------------|-------------------|-------------------|-------------------|
-------------------------|-------------------|-------------------|-------------------|
-------------------------|-------------------|-------------------|-------------------|
-------7--7--L-----------|-------------------|-------------------|-------------------|
-------------------------|-------------------|-------------------|-------------------|
-------5--5--L----12\----|-------------------|-------------------|-------------------|


  W                   H        E   E  E  E     Q    E   E   Q     E   E   
-------------------|------------------------|----------------------------|
-------------------|--------------12--------|----------------------------|
-------------------|------------------9--9--|--L----L--11---L------------|
-------------------|------------------------|----------------------------|
-------------------|------------------------|-------------------------7--|
-------------------|------------------------|--------------------19\-----|


  Q    E   E   Q     E  E     Q    E   E    E   E    Q      
---------------------------|-------------------------------|
---------------------------|----------12b---L--12b--12~----|
----------11---L----11--9--|--L----L-----------------------|
---------------------------|-------------------------------|
--L----L-------------------|-------------------------------|
---------------------------|-------------------------------|


   E    S  S   S  S  E    S.  T  E    S  S  E    
-------12--------12----------12-----------------|
--15b-----15b--L----15b--15b----15b--15-12------|
-------------------------------------------14b--|
------------------------------------------------|
------------------------------------------------|
------------------------------------------------|


                                                                  |---3--|        
   S   S  S  S   E   T   T   T  T   T   T   T  T   T   T   T  T   S  S   S  S  S  
------------------------------------------------------------------------------15-|
------12-15---------12h-15p-12-----12h-15p-12-----12h-15p-12-----12--------------|
--14b-------14b--L-------------14b------------14b------------14b----14p-12-------|
---------------------------------------------------------------------------14----|
---------------------------------------------------------------------------------|
---------------------------------------------------------------------------------|


   |--3--|       |--3--|                                                
   S  S  S  E    S  S  S  E  E   E     E   E       W                    
--12-15-12-------------------------------------|-----------------------|
-----------15---12-15-12-----------------------|-----------------------|
-----------14b-----------13--------------------|-----------------------|
-----------------------------------------------|-----------------------|
-----------------------------------------------|-----------------------|
--------------------------------12br--12--12b--|---Lpbr----------------|


                                                        |---3---|                        
  E   E    E   E    Q     E   S   S     E   S   S   E   S   S   S  S   S  E   E    E     
-----19b---L--19~---L-----L--17h-19-|--19--16h-17p-16--14h-16p-14-12h-14-12--14b---Lpb--|
------------------------------------|---------------------------------------------------|
------------------------------------|---------------------------------------------------|
------------------------------------|---------------------------------------------------|
------------------------------------|---------------------------------------------------|
------------------------------------|---------------------------------------------------|


                                                                |---3---|              
   H         E     E   E   E       E    S  S   S  S  E    S  S  S   S   S  S   S  E    
---L--------14br---L--12-------|-------12--------12------12---------------------------|
--------------------------15b--|--15b-----15b--L----15b-----15-12h-15p-12-----12------|
-------------------------------|------------------------------------------14b----14b--|
-------------------------------|------------------------------------------------------|
-------------------------------|------------------------------------------------------|
-------------------------------|------------------------------------------------------|


   H         E   E  E   E      E.    S    E  E  Q     S  S E     E   E   Q    H         
---------------------------|----------------------------------|------------------------|
---------------------------|----------------------------------|------------------------|
--14---------L\--9--L--11--|--11b----Lpb--L--9--L-------------|------------------------|
---------------------------|-------------------------11s-9-7--|--7~--7\----------------|
---------------------------|----------------------------------|------------------------|
---------------------------|----------------------------------|------------------------|


  S S E  Q    H           W                   W                   W                 
-----------------------|-------------------|-------------------|-------------------|
-----------------------|-------------------|-------------------|-------------------|
-----------------------|-------------------|-------------------|-------------------|
----7-7--7-------------|-------------------|-------------------|-------------------|
-----------------------|-------------------|-------------------|-------------------|
-----------------------|-------------------|-------------------|-------------------|


  W                  
-------------------||
-------------------||
-------------------||
-------------------||
-------------------||
-------------------||




Duration Legend
---------------
W - whole
H - half
Q - quarter
E - 8th
S - 16th
T - 32nd
X - 64th
. - note dotted
|-n-|  - n-tuplets


Tablature Legend
----------------
L - tied note
x - dead note
g - grace note
(n) - ghost note
> - accentuded note
NH - natural harmonic
AH - artificial harmonic
TH - tapped harmonic
SH - semi harmonic
PH - pitch harmonic
h - hammer on
p - pull off
b - bend
br - bendRelease
pb - preBend
pbr - preBendRelease
brb - bendReleaseBend
\n/ - tremolo bar dip
\n - tremolo bar dive
-/n - tremolo bar Release up
/n\ - tremolo bar inverted dip
/n - tremolo bar return
-\n - tremolo bar Release down
S - shift slide
s - legato slide
/ -  slide into from below or out of upwards
\ -  slide into from above or out of downwards
~ - vibrato
W - wide vibrato
tr - trill
TP - tremolo picking
T - tapping
S - slap
P - pop
< - fade in
^ - brush up
v - brush down
Tap to rate this tab
# A B C D E F G H I J K L M N O P Q R S T U V W X Y Z