Song name
# A B C D E F G H I J K L M N O P Q R S T U V W X Y Z

Rufio - Never Learn tab

-------------------------------------------------------------------------------
			     Never Learn - Rufio
-------------------------------------------------------------------------------
Tabbed by: EPL
Email: eliot_landry@hotmail.com

Tuning: E

Guitar lead 1
e|--------------------------------------------------------------------|
B|--------------------------------------------------------------------|
G|--------------4-4--6--------9---8-9-9-8-7---------------------------|
D|---------6-6------------------------------------------7-7-9---------|
A|--4-4-4------------------------------------------7-7----------------|
E|-------------------------------------------5-5-5--------------------|
 
e|---------------------------------|---------------------------------|
B|---------------------------------|---------------------------------|
G|---------------------------------|---------------------------------|
D|---------------------------------|---------------------------------|
A|--------9-9-7-7------------------|---------------------------------|
E|--7-7-7--------------------------|---------------------------------|

| /  slide up
|   slide down
| h  hammer-on
| p  pull-off
| ~  vibrato
| +  harmonic
| x  Mute note
===============================================================================
Tap to rate this tab
# A B C D E F G H I J K L M N O P Q R S T U V W X Y Z