Song name
# A B C D E F G H I J K L M N O P Q R S T U V W X Y Z

Rush - Bravado tab

-------------------------------------------------------------------------------
			     Bravado - Rush
-------------------------------------------------------------------------------
Tabbed by: ThinLizzyFan
Email: Allthatforaboxofchocolates@hotmail.com

i found that this song wasnt tabbed sooo i thought i would try it myself
this is my first tab so if you have any corrections etc. please tell me


Riff: This is played throughout the song

e|---------3---------2-----0--------------3----------0------2----------------|
B|------3---------3------------------3-----------3---------------------------|
G|---0--------0-----------------0------------0-------------------------------|
D|---------------------------------------------------------------------------|
A|---------------------------------------------------------------------------|
E|---------------------------------------------------------------------------|

Solo


e|---------------------------------------------------------------------------|
B|---12--15---------12-------------------------------------------------------|
G|----------14--12------12h14--12--------------------------------------------|
D|-----------------------------------14---12------12--12--12\14---12---10----|
A|---------------------------------------------------------------------------|
E|---------------------------------------------------------------------------|

e|---------------------------------------------------------------------------|
B|---------------------13-13-13-13-13-13-13\15--12---------------------------|
G|----12--12--12--12---------------------------------14--12------12--14--12--|
D|-----------------------------------------------------------14--------------|
A|---------------------------------------------------------------------------|
E|---------------------------------------------------------------------------|

e|-----------------------15---12---------------------------------------------|
B|---------15-15---12--------------15b--15b---12--10h12p10-------------------|
G|--------------------------------------------------------12-----------------|
D|---14--------------------------------------------------------12\14----12---|
A|---------------------------------------------------------------------------|
E|---------------------------------------------------------------------------|

e|----------------------------------------12--15--12-------------------------|
B|--------------------------------12--15--------------15--12-----------------|
G|-------12--14--12-------12--14------------------------------14--12---------|
D|---14---------------14-----------------------------------------------14----|
A|---------------------------------------------------------------------------|
E|---------------------------------------------------------------------------|

e|---------------------------------------------------------------------------|
B|---------------------------------------------------------------------------|
G|--12--14--12---------------------------------------------------------------|
D|--------------14-----------------------------------------------------------|
A|---------------------------------------------------------------------------|
E|---------------------------------------------------------------------------|

solo isnt exactly right you can pretty much just play around that region for the last part of solo

to finish it off you play these chords just strumming downwards repeatedly

e|---------------------------------------------------------------------------|
B|---------------------------------------------------------------------------|
G|----5----------------------------------------------2-----------------------|
D|----5----------------------------------------------2-----------------------|
A|----3----------------------------------------------0-----------------------|
E|---------------------------------------------------------------------------|

e|-----3---------------------------------------------------------------------|
B|-----3---------------------------------------------------------------------|
G|---------------------------------------------------------------------------|
D|----------------------------------------------------2----------------------|
A|-----3----------------------------------------------2----------------------|
E|-----3----------------------------------------------0----------------------|

listen to the song to get it exactly right 

leave a comment and rate plz thanks

| /  slide up
| \  slide down
| h  hammer-on
| p  pull-off
| ~  vibrato
| +  harmonic
| x  Mute note
| b  bend
===============================================================================
Tap to rate this tab
 
# A B C D E F G H I J K L M N O P Q R S T U V W X Y Z