Song name
# A B C D E F G H I J K L M N O P Q R S T U V W X Y Z

Rusty Cooley - Under The Influence tab

Alexi1 back with some arrpegios. By Rusty Cooley.
Rusty Cooley
Under the influence
tunning:Eb Ab Db Gb Bb eb
Ian/Alexi1

|-20p17----------1720p1719p15---------1519p1517p13----------1317p1319p15--|
|-------------------------------------------------------------------------|
|-------21p17h21--------------19p16h19-------------17p14h17---------------|
|-------------------------------------------------------------------------|
|-------------------------------------------------------------------------|
|-------------------------------------------------------------------------|

|----------1519p1520p17----------1720p1719p15----------1519p1517p13--------|
|--------------------------------------------------------------------------|
|-19p16h19--------------21p17h21--------------19p16h19-------------17p14h17|
|--------------------------------------------------------------------------|
|--------------------------------------------------------------------------|
|--------------------------------------------------------------------------|

|-1317p1319p15---------151912p8--------812p815p12---------1215p1210p7-----|
|------------------------------10---10-----------13----13-----------------|
|-------------19p16h19------------9-----------------12--------------------|
|-------------------------------------------------------------------------|
|-------------------------------------------------------------------------|
|-------------------------------------------------------------------------|

|-------710p712p8------710p712p8--------812p8-8p5------58p58p5-----58p510p7|
|-8---8----------8---8----------10---10----------6---6--------7---7--------|
|---7--------------7---------------9---------------5------------5----------|
|--------------------------------------------------------------------------|
|--------------------------------------------------------------------------|
|--------------------------------------------------------------------------|

|------710p710p7------710p712p8--------812p815p12---------1215p1210p7-----|
|8---8----------9---9----------10---10-----------13----13-----------------|
|--7--------------7---------------9-----------------12--------------------|
|-------------------------------------------------------------------------|
|-------------------------------------------------------------------------|
|-------------------------------------------------------------------------|

|-------710p712p8--------812p8-8p5------58p58p5------58p510p7------710p710p7
|-8---8----------10---10----------6---6--------7---7---------8---8---------|
|---7---------------9---------------5------------5-------------7-----------|
|--------------------------------------------------------------------------|
|--------------------------------------------------------------------------|
|--------------------------------------------------------------------------|

|-------710p7-7p3------37p37p3------37p38p5------58p58p5------58p57p3--|
|-9---9----------5---5--------5---5--------6---6--------6---6----------|
|---7--------------4------------4------------5------------5------------|
|----------------------------------------------------------------------|
|----------------------------------------------------------------------|
|----------------------------------------------------------------------|

|-------37p37p3------37p38p5------58p58p5------58p5-------------|
|-5---5--------5---5--------6---6--------6---6------------------|
|---4------------4------------5------------5--------------------|
|---------------------------------------------------------------|
|---------------------------------------------------------------|
|---------------------------------------------------------------|

Thats all ive got. i have watched the video over and over again to get it right.
Ian/alexi1.
www.rustycooley.com
Tap to rate this tab
# A B C D E F G H I J K L M N O P Q R S T U V W X Y Z