Song name
# A B C D E F G H I J K L M N O P Q R S T U V W X Y Z

Rusty Cooley - Butcher tab

Rusty Cooley
The Butcher
1/2 step down tunning
Ian/Alexi1

D#||--19h15----------15-20h15----------15-19h15----------15-19h14----------15-|
A#||--------17----17----------17----17----------17----17----------17----17----|
F#||-----------16----------------16----------------16----------------16-------|
C#||--------------------------------------------------------------------------|
G#||--------------------------------------------------------------------------|
D#||--------------------------------------------------------------------------|


                                                                           
--19h15----------15-20h15----------15-19h15----------------------------14-|
--------17----17----------17----17----------17----------------------15----|
-----------16----------------16----------------16----------------14-------|
--------------------------------------------------17----------16----------|
-----------------------------------------------------19-14h17-------------|
--------------------------------------------------------------------------|


                                                                           
--17h14----------14-19h14----------14-17h14----------14-17h12----------14-|
--------15----15----------15----15----------15----15----------15----15----|
-----------14----------------14----------------14----------------14-------|
--------------------------------------------------------------------------|
--------------------------------------------------------------------------|
--------------------------------------------------------------------------|


                                                                           
--17h14----------14-19h14----------14-17h14----------------------------12-|
--------15----15----------15----15----------15----------------------13----|
-----------14----------------14----------------14----------------12-------|
--------------------------------------------------16----------14----------|
-----------------------------------------------------17-12h15-------------|
--------------------------------------------------------------------------|


                                                                           
--15h12----------------------------14-17h14----------------------------12-|
--------13----------------------15----------15----------------------13----|
-----------12----------------14----------------14----------------12-------|
--------------14----------16----------------------16----------14----------|
-----------------15-14h17----------------------------17-12h15-------------|
--------------------------------------------------------------------------|


                                                                           
--15h12----------12-17h14----------------------------12-15h12-------------|
--------13----13----------15----------------------13----------13----------|
-----------12----------------14----------------12----------------12-------|
--------------------------------16----------14----------------------14----|
-----------------------------------17-12h15----------------------------15-|
--------------------------------------------------------------------------|


                                                                           
-----------------14-17h14----------------------------12-15h12----------12-|
--------------15----------15----------------------13----------13----13----|
-----------14----------------14----------------12----------------12-------|
--------16----------------------16----------14----------------------------|
--14h17----------------------------17-12h15-------------------------------|
--------------------------------------------------------------------------|


                                                                              
--17h14----------14-19h15----------------------------15h19-24t19h15----------|
--------15----15----------17----------------------17----------------17-------|
-----------14----------------16----------------16----------------------16----|
--------------------------------17----------17----------------------------17-|
-----------------------------------19-14h19----------------------------------|
-----------------------------------------------------------------------------|


                      
--------------------||
--------------------||
--------------------||
--------------------||
--19----------------||
--------------------||

there
www.rustycooley.com
Tap to rate this tab
# A B C D E F G H I J K L M N O P Q R S T U V W X Y Z