Song name
# A B C D E F G H I J K L M N O P Q R S T U V W X Y Z

Ry Cooder - Cancion Mixteca tab

---------------------------------------------------------------------------
                Canción Mixteca – Ry Cooder
---------------------------------------------------------------------------
Tabbed by: maguri
Tuning: Standard

Ry Cooder (vocal: Harry Dean Stanton)
Canción Mixteca (1984)

  On the album the song is credited “Trad. arranged by Ry Cooder”
  Wikipedia says, the song was written between 1912 and 1915 by
  Mexican composer José López Alavez.

From: "Paris, Texas – Original Motion Picture Soundtrack"



---------------------------------------------------------------------------


INTRO
  A
  1 + 2 + 3 + 4 + 5 + 6 +  1 + 2 + 3 + 4 + 5 + 6 +
e|----5---5-------5---5---|----5---5-----------5---|
B|----5---5-------5---5---|----5---5-------5---5---|
G|----6---6-------6---6---|----6---6-------6-------|
D|----7---7-------7---7---|----7---7---------------|
A|0-----------------------|0-----------------------|
E|------------0-----------|------------0-----------|
VERSE (instumental)
  A
  1 + 2 + 3 + 4 + 5 + 6 +  1 + 2 + 3 + 4 + 5 + 6 +
e|9---9-----9-9-------7-7-|7---5-----5-5-----------|
B|------------------------|--------------------9---|
G|9---9-----9-9-------7-7-|7---6-----6-6-----------|
D|------------------------|--------------------9---|
A|0-----------------------|0-----------------------|
E|------------------------|------------------------|
  E
  1 + 2 + 3 + 4 + 5 + 6 +  1 + 2 + 3 + 4 + 5 + 6 +
e|7-----------------------|------------------------|
B|---/9-----------9---9---|--------9---------------|
G|7---------------9---9---|--------9---------------|
D|---/9-----------9---9---|--------9---------------|
A|------------------------|------------------------|
E|0-----------0-----------|0-----------0-----------|
  E
  1 + 2 + 3 + 4 + 5 + 6 +  1 + 2 + 3 + 4 + 5 + 6 +
e|------------------------|------------------------|
B|12--12----1212------10--|10--9-----9-9-------7---|
G|13--13----1313------11--|11--9-----9-9-------7---|
D|------------------------|------------------------|
A|------------------------|------------------------|
E(0)----------------------|------------------------|
  A
  1 + 2 + 3 + 4 + 5 + 6 +  1 + 2 + 3 + 4 + 5 + 6 +
e|5---------------5---5---|----5---5-----------5---|
B|----5-----------5---5---|----5---5-------5---5---|
G|6---------------6---6---|----5---5-------6-------|
D|----------------5---5---|----6---6---------------|
A(0)----------------------|0-----------------------|
E|------------0-----------|------------0-----------|
  A
  1 + 2 + 3 + 4 + 5 + 6 +  1 + 2 + 3 + 4 + 5 + 6 +
e|9---9-----9-9-------7-7-|7---5-----5-5-----------|
B|------------------------|--------------------9---|
G|9---9-----9-9-------7-7-|7---6-----6-6-----------|
D|------------------------|--------------------9---|
A(0)----------------------|------------------------|
E|------------------------|------------------------|
  D
  1 + 2 + 3 + 4 + 5 + 6 +  1 + 2 + 3 + 4 + 5 + 6 +
e|7-----------------------|------------------------|
B|----7-------------------|----10--10------109-----|
G|7---7-------------------|----11--11----------11--|
D(0)----------------------|----12--12--------------|
A|------------------------|------------------------|
E|------------------------|------------------------|
  E                        A
  1 + 2 + 3 + 4 + 5 + 6 +  1 + 2 + 3 + 4 + 5 + 6 +
e|------------------------|------------------------|
B|12----------10--9---7---|5-----------5--/10--10--|
G|13----------11--9---7---|6-------6---6--/9---9---|
D|------------------------|7-------7---------------|
A|------------------------|0-----------------------|
E|------------------------|------------------------|
  E                        A
  1 + 2 + 3 + 4 + 5 + 6 +  1 + 2 + 3 + 4 + 5 + 6 +
e|------------10------9---|----------------5---5---|
B|9-----------9-----------|12-10-----------5---5---|
G|--------9---9-----------|----------------6---6---|
D|9-----------------------|12-11-----------7---7---|
A|------------------------(0)----------------------|
E(0)----------------------|------------0-----------|
  A                        E
  1 + 2 + 3 + 4 + 5 + 6 +  1 + 2 + 3 + 4 + 5 + 6 +
e|------------------------|------------------------|
B|--------------------12--|------------------------|
G|----------9-9--/13------|13----------------------|
D|------------------------|------------------------|
A|------------------------|------------------------|
E|------------------------|------------------------|
                           A
  1 + 2 + 3 + 4 + 5 + 6 +  1 + 2 + 3 + 4 + 5 + 6 +
e|------------------------|------------------------|
B|----------9-10--9-------|------------------------|
G|----------------------11|9-----------------------|
D|------------------------|----11------------------|
A|------------------------|------------------------|
E|------------------------|------------------------|
                           E
  1 + 2 + 3 + 4 + 5 + 6 +  1 + 2 + 3 + 4 + 5 + 6 +
e|------------------------|12--10------------------|
B|----------------------12|------------------------|
G|--------9-9-9--/13------|13--11------------------|
D|------------------------|------------------------|
A|------------------------|------------------------|
E|------------------------|------------------------|
                           E
  1 + 2 + 3 + 4 + 5 + 6 +  1 + 2 + 3 + 4 + 5 + 6 +
e|----0-------------------|------------------------|
B|----0-------------------|------------------------|
G|----1---------------1113|13--------1314--13----11|
D|----2-----------------/-|------------------------|
A|------------------------|------------------------|
E|------------------------|------------------------|
  A
  1 + 2 + 3 + 4 + 5 + 6 +  1 + 2 + 3 + 4 + 5 + 6 +
e|------------------------|--------------------5---|
B|------------------------|----------------5---5---|
G|9-----------------------|----------------6-------|
D|----11------------------|------------------------|
A|------------------------|------------------------|
E|------------------------|------------------------|

  A
  1 + 2 + 3 + 4 + 5 + 6 +  1 + 2 + 3 + 4 + 5 + 6 +
e|9---9-----9-9-------7-7-|7---5-----5-5-----------|
B|10--10----1010------9-9-|9---7-----7-7-------9---|
G|------------------------|--------------------9---|
D|------------------------|------------------------|
A|0-----------------------|0-----------------------|
E|------------------------|------------------------|
  D                        Bm
  1 + 2 + 3 + 4 + 5 + 6 +  1 + 2 + 3 + 4 + 5 + 6 +
e|7---------------------5-/10--------9----------------|
B|9---7---------------7---|------------12-------------|
G|----7-------------------/11-------------------------|
D(0)----------------------| --------------------------|
A|------------------------|---------------------------|
E|------------------------|---------------------------|
  E                        A
  1 + 2 + 3 + 4 + 5 + 6 +  1 + 2 + 3 + 4 + 5 + 6 +
e|------------------------|------------------------|
B|12----------10--9---7---|5-----------5---10--7---|
G|13----------11--9---7---|6-------6---6---9---7---|
D|------------------------|7-------7---------------|
A|------------------------|0-----------------------|
E|------------------------|------------------------|
  E                        A
  1 + 2 + 3 + 4 + 5 + 6 +  1 + 2 + 3 + 4 + 5 + 6 +
e|------------10------9---|tr--------------5---5---|
B|9-----------9-----------|12-10-----------5---5---|
G|9-------9---9-----------|----------------6---6---|
D|------------------------|12-11-----------7---7---|
A|------------------------(0)----------------------|
E(0)----------------------|------------0-----------|
  A
  1 + 2 + 3 + 4 + 5 + 6 +
e|----5---5-------5---5---|
B|----5---5-------5---5---|
G|----6---6-------6---6---|
D|----7---7-------7---7---|
A|0-----------------------|
E|------------0-----------|
                     (Que  lejos ...)


OUTRO
  A
  1 + 2 + 3 + 4 + 5 + 6 +  1 + 2 + 3 + 4 + 5 + 6 +
e|9---9-----9-9-------7-7-|7---5-----5-5-----------|
B|------------------------|--------------------9---|
G|9---9-----9-9-------7-7-|7---6-----6-6-----------|
D|------------------------|--------------------9---|
A|0-----------------------|0-----------------------|
E|------------------------|------------------------|
  E
  1 + 2 + 3 + 4 + 5 + 6 +  1 + 2 + 3 + 4 + 5 + 6 +
e|7-----------------------|------------------------|
B|---/9-----------9---9---|--------9---------------|
G|7---------------9---9---|--------9---------------|
D|---/9-----------9---9---|--------9---------------|
A|------------------------|------------------------|
E|0-----------0-----------|0-----------0-----------|
  E                        A
  1 + 2 + 3 + 4 + 5 + 6 +  1 + 2 + 3 + 4 + 5 + 6 +
e|------------------------|------------------------|
B|12----------10--9---7---|5-----------5---10--7---|
G|13----------11--9---7---|6-------6---6---9---7---|
D|------------------------|7-------7---------------|
A|------------------------|0-----------------------|
E|------------------------|------------------------|
  E                        A
  1 + 2 + 3 + 4 + 5 + 6 +
e|------------10------9---|------|
B|9-----------9-----------|12-10-|
G|9-------9---9-----------|------|
D|------------------------|12-11-|
A|------------------------(0)----|
E(0)----------------------|------|


----------------------------------------------------

INTRO
| A | % |

VERSE (instrumental)
| A | % | E | % |
| E | % | A | % |
| A | % | D | % |
| E | A | E | A | % |
| E | % | A | % | E | % |
| E | A | % |
| A | % | D | Bm |
| E | A | E | A | % |


     A                                E
¡Qué lejos estoy del suelo donde he nacido!
  E                              A
inmensa nostalgia invade mi pensamiento;
     A                                      D       Bm
y al verme tan solo y triste cual hoja al viento,
   E        A               E             A
quisiera llorar, quisiera morir de sentimiento.

               E                A
¡Oh Tierra del Sol! Suspiro por verte
          E                           A
ahora que lejos yo vivo sin luz, sin amor;
     A                                      D       Bm
y al verme tan solo y triste cual hoja al viento,
   E        A               E             A
quisiera llorar, quisiera morir de sentimiento.


OUTRO
| A | % | D | Bm |
| E | A | E | A
Tap to rate this tab
# A B C D E F G H I J K L M N O P Q R S T U V W X Y Z