Song name
# A B C D E F G H I J K L M N O P Q R S T U V W X Y Z

Ryan Hudak - You tab

-------------------------------------------------------------------------------
                             SONG NAME -You
-------------------------------------------------------------------------------
Tabbed by: Ryan Hudak
E-mail: guitarhudak@yahoo.com

Tuning:

guitar tabs ( 4 # )
Verse : 1
e|-------2-----2------------2-----2-----------2-----2------------2-----2--3----------|
B|-------------2--3---------------2--3--------------2--3---------------2-------------|
G|-2-----2------------2-----2------------2----2-------------2----2-------------------|
D|-2-----2------------2-----2------------2----2-------------2----2-------------------|
A|-----------------------------------------------------------------------------------|
E|-----------------------------------------------------------------------------------|

Chorus : 1
e|------2-----2---------2-----2----------2-----2-----------2-----2-------------------|
B|------------2-3-------------2-3--------------2--3--------------2-3-----------------|
G|-2----2-----------2---2-----------2----2-------------2---2-------------------------|
D|-2----2-----------2---2-----------2----2-------------2---2-------------------------|
A|-----------------------------------------------------------------------------------|
E|-----------------------------------------------------------------------------------|

Verse : 2
e|-------2----2----------2----2--------2----2---------2----2-------------------------|
B|------------2-3-------------2-3-----------2-3------------2-3-----------------------|
G|--2----2----------2----2---------2---2----------2---2------------------------------|
D|--2----2----------2----2---------2---2----------2---2------------------------------|
A|-----------------------------------------------------------------------------------|
E|-----------------------------------------------------------------------------------|

Chorus : 2 ( 2 # )
e|-------2----2--------2---2-------2---2---------2----2------------------------------|
B|------------2-3----------2-3---------2-3------------2-3----------------------------|
G|--2----2---------2---2--------2--2---------2---2-----------------------------------|
D|--2----2---------2---2--------2--2---------2---2-----------------------------------|
A|-----------------------------------------------------------------------------------|
E|-----------------------------------------------------------------------------------|
Tap to rate this tab
# A B C D E F G H I J K L M N O P Q R S T U V W X Y Z