Song name
# A B C D E F G H I J K L M N O P Q R S T U V W X Y Z

Saints - Im Stranded tab

Band: The Saints
Song: (I'm) Stranded
Album: (I'm) Stranded
Year: 1977
Tuning: Standard

Intro\Chorus:

E|---------------------------------------------------|
B|---------------------------------------------------|
G|------9---------9---11-11-11-11-11-11-11-11--------|
D|-9----9----9----9---11-11-11-11-11-11-11-11--------|
A|-9----7----9----7---9--9--9--9--9--9--9--9---------|
E|-7---------7---------------------------------------|

Then do this after each chorus:

  P.M.------------------------------------|
E|----------------------------------------|
B|----------------------------------------|
G|----------------------------------------|
D|-9-9-9-9-9-9-9-9-7-7-7-7-7-7-7-7--------|
A|-7-7-7-7-6-6-6-6-5-5-5-5-4-4-4-4--------|
E|----------------------------------------|

And for verses:

E|---------------------------------------------------|
B|---------------------------------------------------|
G|-----------------11-11-11-11-11-11-11-11-----------|
D|-9-9-9-9-9-9-9-9-11-11-11-11-11-11-11-11-----------|
A|-9-9-9-9-9-9-9-9-9--9--9--9--9--9--9--9------------|
E|-7-7-7-7-7-7-7-7-----------------------------------|

AND THAT'S IT! Pretty easy huh?

A classic from an excellent old school punk rock band by The Saints.

E-mail me at Tyler10j@yahoo.com for suggestions, requests, help, fixes, anything.
Tap to rate this tab
# A B C D E F G H I J K L M N O P Q R S T U V W X Y Z