Song name
# A B C D E F G H I J K L M N O P Q R S T U V W X Y Z

Saliva - Superstar tab

Band- Saliva
Song- Superstar 2

Drop-C Tuning

"Saliva-Superstar II"
------------------------------------------------------|
------------------------------------------------------|
------------------------------------------------------|
--12/0--0--0--10/0--0--3h5-5-3-0----3h5-5-3-0----5-3--|
--12/0--0--0--10/0--0--3h5-5-3-0----3h5-5-3-0----5-3--|
--12/0--0--0--10/0--0--3h5-5-3-0----3h5-5-3-0----5-3--|

------------------------------------------------------|
------------------------------------------------------|
------------------------------------------------------|
--12/0--0--0--10/0--0--3h5-5-3-0----3h5-5-3-0----5-3--|
--12/0--0--0--10/0--0--3h5-5-3-0----3h5-5-3-0----5-3--|
--12/0--0--0--10/0--0--3h5-5-3-0----3h5-5-3-0----5-3--|

------------------------------------------------------|
------------------------------------------------------|
------------------------------------------------------|
--12/0--0--0--10/0--0--3h5-5-3-0----3h5-5-3-0----5-3--|
--12/0--0--0--10/0--0--3h5-5-3-0----3h5-5-3-0----5-3--|
--12/0--0--0--10/0--0--3h5-5-3-0----3h5-5-3-0----5-3--|

------------------------------------------------------|
------------------------------------------------------|
------------------------------------------------------|
--12/0--0--0--10/0--0--3h5-5-3-0----3h5-5-3-0----5-3--|
--12/0--0--0--10/0--0--3h5-5-3-0----3h5-5-3-0----5-3--|
--12/0--0--0--10/0--0--3h5-5-3-0----3h5-5-3-0----5-3--|

Verse

------------------------------------------------------|
------------------------------------------------------|
------------------------------------------------------|
-000--333--555--666--5-3------------------------------|
-000--333--555--666--5-3------------------------------|
-000--333--555--666--5-3------------------------------|

------------------------------------------------------|
------------------------------------------------------|
------------------------------------------------------|
-000--333--555--666--5-3------------------------------|
-000--333--555--666--5-3------------------------------|
-000--333--555--666--5-3------------------------------|

Chorus
------------------------------------------------------|
------------------------------------------------------|
------------------------------------------------------|
-12-10-12---10-9-10--5-3h5-55-5h3---------------------|
-12-10-12---10-9-10--5-3h5-55-5h3---------------------|
-12-10-12---10-9-10--5-3h5-55-5h3---------------------|

------------------------------------------------------|
------------------------------------------------------|
------------------------------------------------------|
-12-10-12---10-9-10--5-3h5-55-5h3---------------------|
-12-10-12---10-9-10--5-3h5-55-5h3---------------------|
-12-10-12---10-9-10--5-3h5-55-5h3---------------------|

Bridge

(number of strums not exact here, listen to the song :D and figure:P)
------------------------------------------------------|
------------------------------------------------------|
------------------------------------------------------|
-4444-45555-11111-00000-------------------------------|
-4444-45555-11111-00000-------------------------------|
-4444-45555-11111-00000-------------------------------|

Its back to the verse, but the other guitar is playing the solo
------------------------------------------------------|
------------------------------------------------------|
------------------------------------------------------|
-000--333--555--666--5-3------------------------------|
-000--333--555--666--5-3------------------------------|
-000--333--555--666--5-3------------------------------|
Tap to rate this tab
# A B C D E F G H I J K L M N O P Q R S T U V W X Y Z