Song name
# A B C D E F G H I J K L M N O P Q R S T U V W X Y Z

Saliva - Razors Edge tab

---------------------------------------------------------------------------
			     SALIVA - RAZOR'S EDGE
---------------------------------------------------------------------------
Tabbed by:Pete Griffin

This is just my interpretation of what this great Saliva song sounds like.

This tab is for rhythm guitar but also with the solo tabbed

Tuning:Drop C (CGCFAD)
 
0.00 Intro/Verse (Slightly dirty sound)        ~~~
D|-----------------------------------------------------------------------|
A|----------3---------3----3-3-3------8------------------------3---------|
F|----0h2-----2---0h2---2--5-5-5-x-x--7----------------------------------|
C|-0------0-----0----------5-5-5-x-x--5-------------0-0-3br3p0-----------|
G|-0-----------------------3-3-3-x-x--5------5------0--------------------|
C|-0----------------------------------5--5h7---3----0--------------------|

D|-----------------------------------------------------------------------|
A|-3----------3-3-3------8--8-8------------------------------------------|
F|---2--------5-5-5-x-x--7--7-7------------------------------------------|
C|---------0--5-5-5-x-x--5--5-5------------------------------------------|x2
G|-----0h2----3-3-3-x-x--5--5-5------------------------------------------|
C|-----------------------5--5-5------------------------------------------|

0.24 Chorus (Distortion)
D|-----------------------------------------------------------------------|
A|-----------------------------------------------------------------------|
F|-\\-3-3-3-3-3/5-5-5-5-5-5--7-7-7-7-7-7---------------------------------|
C|-\\-3-3-3-3-3/5-5-5-5-5-5--7-7-7-7-7-7---------------------------------|
G|-\\-1-1-1-1-1/3-3-3-3-3-3--5-5-5-5-5-5---------------------------------|
C|-----------------------------------------------------------------------|

D|-----------------------------------------------------------------------|
A|-------------------------------3--2-3----------------------------------|
F|-3-3-3-3-3-3--5-5-5-5----------2--2-2-----------3-3-3-3-3/5-5-5-5-5-5--|
C|-3-3-3-3-3-3--5-5-5-5--3-5-x-x-0--0-0-x-x-------3-3-3-3-3/5-5-5-5-5-5--|
G|-1-1-1-1-1-1--3-3-3-3--3-5-x-x-0--0-0-x-x-------1-1-1-1-1/3-3-3-3-3-3--|
C|-----------------------3-5-x-x-0--0-0-x-x------------------------------|

D|-----------------------------------------------------------------------|
A|-----------------------------------------------------------------------|
F|--------------3-3-3-3-3/5-5-5-5-5-5--7---------------------------------|
C|-3-3-x-x-5-5--3-3-3-3-3/5-5-5-5-5-5--7---------------------------------|
G|-3-3-x-x-5-5--1-1-1-1-1/3-3-3-3-3-3--5---------------------------------|
C|-3-3-x-x-5-5-----------------------------------------------------------|

0.49 Intro/verse x2

1.13 Chorus

1.35 Solo
D|-----------------------------10------------------------------------------|
A|----13-----13----13b-13b--13-------------------------------------------13|
F|12b----12b----12----------------12b-12p10-12----10----------------10/12--|
C|---------------------------------------------12---12-12\10--12\10--------|
G|-------------------------------------------------------------------------|
C|-------------------------------------------------------------------------|

D|-15b-15b-15br15p13----13-------------------------------------------------|
A|-------------------15-------15----15----15----17----17-----15b-15br15p13-|
F|------------------------/14----14----14----14----14----14----------------|
C|-------------------------------------------------------------------------|
G|-------------------------------------------------------------------------|
C|-------------------------------------------------------------------------|

D|----------13-15----15b-15br15p13-15-------13----------------------13-----|
A|15-15--15-------15------------------------------------------13-15---15-13|
F|------------------------------------12-14----12\10----10--14-------------|
C|---------------------------------------------------12--------------------|
G|-------------------------------------------------------------------------|
C|-------------------------------------------------------------------------|

D|-13-13-----10h13p10------------------------------------------------------|
A|-------15-----------13-13------------------------------------------------|
F|--------------------------12\10\9---10/9-9-9-9/7-7-7-7/5-5-5-5-----------|
C|------------------------------------x-/x-x-x-x/x-x-x-x/x-x-x-x-----------|
G|------------------------------------8-/7-7-7-7/5-5-5-5/3-3-3-3-----------|
C|-------------------------------------------------------------------------|

D|-----------------------13-------15h16p15----15---------20b---------------|
A|-----------------13-15----15-13----------18---15-18-15-------------------|
F|-----------10/14---------------------------------------------------------|
C|-----10-12---------------------------------------------------------------|
G|-/12---------------------------------------------------------------------|
C|-------------------------------------------------------------------------|
                                          ~~~~~
D|-20br20p17-----20--------------------------------------------------------|
A|-----------20b----20br20p18-20-18----------------------------------------|
F|----------------------------------19-17-19-------------------------------|
C|-------------------------------------------------------------------------|
G|-------------------------------------------------------------------------|
C|-------------------------------------------------------------------------|

2.09 Chorus x2

3.01 Intro/verse

Hope you enjoy learning this great song, please rate and comment if you like it!!!

| /  slide up
| \  slide down
| h  hammer-on
| p  pull-off
| ~  vibrato
| +  harmonic
| x  Mute note
===========================================================================
Tap to rate this tab
 
# A B C D E F G H I J K L M N O P Q R S T U V W X Y Z