Song name
# A B C D E F G H I J K L M N O P Q R S T U V W X Y Z

Saosin - Time After Time Acoustic tab

This is how I learned it. I'm not sure if it is exact, but it is pretty close

If you have any questions of comments e-mail me at nblackford89@yahoo.com

It is based mainly on 3 chords:
     F          G          C
e|-------| e|-------| e|-------|
B|x------| B|x------| B|x------|
G|-------| G|-------| G|-------|
D|--x----| D|-------| D|-x-----|
A|-------| A|-------| A|--x----|
E|x------| E|--x----| E|-------|

(- = one fret)

And it also uses this one:
    Am7
e|---x---|
B|x------|
G|-------|
D|-x-----|
A|-------|
E|-------|

If you hold down these chords it is pretty east to pick up this picking pattern

Intro (x2)

e|------------------------------------------------------------|
B|-------1--------1--------1-------1--------------------------|
G|----0-0------0-0------0-0-----0-0---------------------------|
D|---3-3------0-0------2-0-----3-3----------------------------|
A|------------------------------------------------------------|
E|--1--------3--------0-------1-------------------------------|

Verse (x8)

e|------------------------------------------------------------|
B|----1----1-----1----1---------------------------------------|
G|---0----0-0---0----0-0--------------------------------------|
D|--0----------0----------------------------------------------|
A|-------3----------3-----------------------------------------|
E|------------------------------------------------------------|

Pre-chorus (x2)

e|------------------------------------------------------------|
B|----1---1---1---1---1---1---1-3--1--------------------------|
G|---0---0---0---0---0---0---0------0-------------------------|
D|--3---0---2---3---3---0---2--------2------------------------|
A|------------------------------------------------------------|
E|--1---3---0---1---1---3---0---------------------------------|

Chorus (x4)

e|--------------------3---------------------------------------|
B|-----1---------1-0h1-----1-----1-----1----------------------|
G|----0-0-------0---------0-----0-----0-0---------------------|
D|---0---0-----2---------3-----0-----2---2--------------------|
A|------------0---------------------3-----3-------------------|
E|--3-----3-------------1-----3-------------------------------|

These are all the parts of the songs that you need to know. After the chorus there is a 
that has two guitars finger picking so it is a little difficult to decipher.

After the bridge the rest of the song goes:

Verse (x8)

Pre-chorus (x2)

Chorus (x8)

Then they play into an outro (which is the same as the intro) and they repeat this 8x.

===============================================================================
Tap to rate this tab
 
# A B C D E F G H I J K L M N O P Q R S T U V W X Y Z