Song name
# A B C D E F G H I J K L M N O P Q R S T U V W X Y Z

Saron Gas - Fine Again tab

Help us improve GuitareTab! Take a short survey!
Song: 	Fine Again 
Artist: Saron Gas 
Album: 	The Fragile 

Tabbed By: 		Clayton Botha 
Questions/Comments:	cn_botha@freemail.absa.co.za

This is the Corrected Version
This Is the Song That Made Them Really Famous. Saron Gas. 

The Tuning Is Drop - D 

Intro/Interlude

e[-------------------------------------------] 
B[-------------------------------------------] 
G[-------------------------------------------] Play This  
D[-----4-----------7---------2---------0-----] Twice  
A[---4-----------7-------------2---------0---] 
D[-4-----4--/--7-----7--\--2-----2---0-----0-] 

Verse/Chorus 

e[-------------------------------------------] 
B[-------------------------------------------] 
G[-------------------------------------------] 
D[---4-4-x-7-7-7-7-7-x-2-2-x-0-0-0-0-0-x-----] 
A[---4-4-x-7-7-7-7-7-x-2-2-x-0-0-0-0-0-x-----] 
D[---4-4-x-7-7-7-7-7-x-2-2-x-0-0-0-0-0-x-----] 


Electric * (End of Intro)

e[--------------------------------------------] 
B[-----------9-10---9---10--(10)---9---9-7----] 
G[-----9-9------------9--------------9--------] 
D[---9----------------------------------------] 
A[-9------------------------------------------] 
D[--------------------------------------------] 

This is a brilliant song, easy to play, it also has a very fun and catchy rhythm pattern
Related for Fine Again tab