Song name
# A B C D E F G H I J K L M N O P Q R S T U V W X Y Z

Satin Dolls - Dime tab

        VERSO 1
e|-----------------------------------|
B|-----------------------------------|
G|-4-4-2-2-0-0-----4-4-2-2-0-0---2---|
D|--4-4-4-4-4-4-----4-4-4-4-4-4------| X6
A|-----------------------------------|
D|-----------------------------------|


         CORO
e|-----------------------------|
B|-----------------------------|
G|----7-7-7-6-6-6-------4------|
D|----7-----------7-----5--5---|
A|-5------------------5--------|
D|-----------------------------|

e|---------------------------------|
B|---------------------------------|
G|----7-7-7-6-6-6-----4-4----------|
D|----7-----------7---5-5-5-5-4-4--|
A|-5----------------5-------------5|
D|---------------------------------|

         VERSO 2
e|-----------------------------------|
B|-----------------------------------|
G|-4-4-2-2-0-0-----4-4-2-2-0-0---2---|
D|--4-4-4-4-4-4-----4-4-4-4-4-4------| X6
A|-----------------------------------|
D|-----------------------------------|

           CORO 2                     ----------------------
e|-----------------------------|
B|-----------------------------|
G|----7-7-7-6-6-6-------4------|
D|----7-----------7-----5--5---|
A|-5------------------5--------|
D|-----------------------------|
                                            X2
e|---------------------------------|
B|---------------------------------|
G|----7-7-7-6-6-6-----4-4----------|
D|----7-----------7---5-5-5-5-4-4--|
A|-5----------------5-------------5|
D|---------------------------------|
                                      -----------------------

e|-----------------------------|
B|-----------------------------|
G|----7-7-7-6-6-6-------4------|
D|----7-----------7-----5--5---|
A|-5------------------5--------|
D|-----------------------------|
                                             X2
e|---------------------------3--2----|
B|---------------------------------3-|
G|----7-7-7-6-6-6-----4-4------------|
D|----7-----------7---5-5-5----------|
A|-5----------------5----------------|
D|-----------------------------------|

                                     --------------------------
               PUENTE
e|----------------------------------|
B|----------------------------------|
G|-----4------4--------7------7-----|
D|-----4------4--------7------7-----|
A|-2-2---2--2----2/5-5---5--5---5---|
D|----------------------------------|
                                             X2
e|--------------------------------|
B|--------------------------------|
G|--------------------------------|
D|-----7-------5-------4----------|
A|-----7-------5-------4----------|
D|-7-7---7/5-5---5/4-4---4--------|

                                   -----------------------------

e|-----------------------------|
B|-----------------------------|
G|----7-7-7-6-6-6-------4------|
D|----7-----------7-----5--5---|
A|-5------------------5--------|
D|-----------------------------|
                                            X2
e|---------------------------------|
B|---------------------------------|
G|----7-7-7-6-6-6-----4-4----------|
D|----7-----------7---5-5-5-5-4-4--|
A|-5----------------5-------------5|
D|---------------------------------|
                                      -----------------------
          CORO 3
e|-----------------------------|
B|-----------------------------|
G|----7-7-7-6-6-6-------4------|
D|----7-----------7-----5--5---|
A|-5------------------5--------|
D|-----------------------------|
                                            X2
e|---------------------------------|
B|---------------------------------|
G|----7-7-7-6-6-6-----4-4----------|
D|----7-----------7---5-5-5-5-4-4--|
A|-5----------------5-------------5|
D|---------------------------------|




e|-----------------------------|
B|-----------------------------|
G|----7-7-7-6-6-6-------4------|
D|----7-----------7-----5--5---|
A|-5------------------5--------|
D|-----------------------------|
                                             X2
e|---------------------------3--2----|
B|---------------------------------3-|
G|----7-7-7-6-6-6-----4-4------------|
D|----7-----------7---5-5-5----------|
A|-5----------------5----------------|
D|-----------------------------------|


by mic
solo se necesita escuchar para entenderle bien..
twitter @tuamigoesun
Tap to rate this tab
# A B C D E F G H I J K L M N O P Q R S T U V W X Y Z