Guitaretab - guitar tabs
Song name
# A B C D E F G H I J K L M N O P Q R S T U V W X Y Z

Satyricon - New Enemy tab

#------------------------------------PLEASE  NOTE----------------------------------------------#
#This file is the author's own work and represents their interpretation of the #
#song. You may only use this file for private study, scholarship, or research#
#----------------------------------------------------------------------------------------------#

G: Satyricon - New Enemy

Tabbed Friday, Mar 08  2008


Band:  Satyricon 
Album: Now Diabolical
Song:  New Enemy
 
Transcribed By: Elathen
Email:         ningalia87@yahoo.com


. - palm mute / - slide up to
 - slide down to ^ - vibrato
h - hammer on p - pull off
, - slight palm mute [] - first time only
" " tremolo note <> - Trill

Suffixes for bend
f - full bend h - half bend
ph - pinched harmonic q - quarter bend
t - tap bend * - see comment
~ - Hold bend r - release bend
x  Staccato ~ - vibrato bend

Tuning E A D G B E

Riff 1                           x8        1     2       3      4  x8
|---------------------------------|      |-6---||-4---||---1-||--2--|
|---------------------------------|      |---4-||---2-||-0---||-----| 
|---------------------------------|Gtr 1 |-----||-----||----||-----|Gtr 2
|---------------------------------|      |-----||-----||-----||-----|
|--5---6----8---6---8---6----9----|      |-----||-----||-----||-----|
|--6---6----6---6---6---6----9----|      |-----||-----||-----||-----|
                                                               
Riff 2                  x3  Fig. 1              x1
|-------------------------||---------------------|
|-------------------------||---------------------| 
|-------------------------||---------------------| 
|-------------------------||---------------------|  
|-------------------------||--7-5-4-3-4-5-7------|
|--0-0-0--5^---0---2^-3^--||--5-3-2-1-2-3-5------|
                                           
Repeat Riff 2 x 3
[ Tab from: http://www.guitaretab.com/s/satyricon/104938.html ]
Repeat Fig. 1 x 1
 
Riff 3                                                      x1
|------------------------------------------------------------|
|------------------------------------------------------------| 
|------------------------------------------------------------| 
|--------------------------------------------------2^--------|  
|--2-2-2-----------------------4^-----0--2^-----------2^-3^-=|
|--0-0-0--5^--0--2^-3^--0-0-0-----5^--------0-0-0------------|
   . . .                                                  
Riff 4                   x3  Fig .2             x1
|-------------------------||---------------------|
|-------------------------||---------------------| 
|-------------------------||---------------------| 
|---------1p2p1-----------||---------------------|  
|-2-2-2---------2^--3^----||--7-5-4-3-4-5-7------|
|-0-0-0-------------------||--5-3-2-1-2-3-5------|
- . . .                 

Repeat Riff 4 x 3\
                   X3
Repeat Fig. 2 x 1/

Repeat Riff 1 x 7

Fill 1
|-------------------------|
|-------------------------| 
|-------------------------| Repeat many times
|-------------------------| with tremolo picking 
|--0----------------------|
|-5^---------------------|

Repeat Riff 2 x 3\
                  x2
Repeat Fig. 1 x 1/

Repeat Riff 3 x 1



Repeat Riff 4 x 3\
                  x4
Repeat Fig. 2 x 1/
       
Riff 4                     x3                              
|---------------------------|     
|---------------------------|     
|-----------------------(7)-|Gtr 1
|-------------------(6)-----|                               x6
|7-8--9-89--10^8---------|      |-------------------------|
|---------------------------|      |-------------------------|
                                   |-6----------------------|Gtr 2              
Riff 4b                    x3      |-8---8--9---8----3--/7--|
|---------------------------|      |-8---8--9---8----3--/7--|
|---------------------------|      |------6--7-6--1--/5--|
|--------9-10^--------------|Gtr 1
|--------------8--1011----|  
|-7-8-----------------(10)-|
|---------------------------|
                          
Repeat Fill 1

Repeat Riff 2 x 3\
                  x2
Repeat Fig. 1 x 1/

Repeat Riff 3 x 1

Repeat Riff 4 x 3\
                  x5
Repeat Fig. 2 x 1/

Repeat Riff 4 x 4

Repeat Fill 1

Outro Chords             x1
|-------------------------|
|-------------------------| 
|-------------------------| 
|-------------------------|  
|--7-5-4-3--4-5-7--2------|
|--5-3-2-1--2-3-5--0------|
Related for New Enemy tab