Song name
# A B C D E F G H I J K L M N O P Q R S T U V W X Y Z

Saxon - Need For Speed tab

Hey guys, this is A great song and great band which are underated...
Half step tuning

eb[-------------------------------]
Bb[-------------------------------]
Gb[----------------------------3h5]
Db[-7p5---7p5---7p5---7p5---3h5---]
Ab[-----0-----0-----0-----0-------]
Eb[-------------------------------]

eb[---------------------]
Bb[---------------------]
Gb[---------------------]
Db[-7p5-7p5-7p5-7-5-4(2)]
Ab[----0---0----5-3-2(0)]
Eb[---------------------]

This is repeated till verse, but there are some syth sorta riffs like this.
----------------------------------------------------------------------
(1) Squil w wammy bar or bend
eb[---------]
Bb[---------]
Gb[-5(^)----]
Db[---------]
Ab[---------]
Eb[---------]

(2)

eb[------------------------------------------------------]
Bb[------------------------------------------------------]
Gb[------------------------------------------------------]
Db[------------------------------------------------------]
Ab[-12v\0------------------------------------------------]
Eb[------------------------------------------------------]
---------------------------------------------------------]

Verse:
(* means palm mute)
eb[--------------------------------]
Bb[--------------------------------]
Gb[--------------------------------]
Db[-9-9-999-9-9-999-9-9-999--------]
Ab[-7-7-777-7-7-777-7-7-777-9/8--7-]
Eb[-----***-----***-----***-7/10-5-]

Eventually...

eb[----------------]
Bb[----------------]
Gb[----------------]
Db[-3~-3-----------]
Ab[-1~-1-5---------]
Eb[------3---------]

Thats all i got so far, that will cover you up to the solo, which i will tab in 
you please rate
Tap to rate this tab
 
# A B C D E F G H I J K L M N O P Q R S T U V W X Y Z