Song name
# A B C D E F G H I J K L M N O P Q R S T U V W X Y Z

Saxon - Wheels Of Steel tab

WRIGHTEN BY: MASTER J.C.W. Try usin a capo on first fret it saves movin your fingers 
so much... shhhh... its not cheatin!!!!!!!!!!!!!
if this doesn't sound right snd your guitar is normally tuned try playin it a fret down.
 INTRO
E-----------------------------------------------------------------|
B--1-----------------------------------------------4-3-1----------|
G--1-----------------------------------------------4-3-1----------|
D--1-----------------------------------------------4-3-1----------|
A--0--------------------------------------------------------------|
E-----------------------------------------------------------------|


 PRE VERSE
E-----------------------------------------------------------------|
B-----------------------------------------------------------------|
G--4--3-1------4--4-1--4--4-1-------------------------------------| X4
D--4--3-1------4--4-1--4--4-1-------------------------------------|
A-----------------------------------------------------------------|
E-----------------------------------------------------------------|

VERSE
E--VERSE IS EXACTLY THE SAME----------------------------EXACTLY!
B--VERSE IS EXACTLY THE SAME----------------------------EXACTLY!
G--VERSE IS EXACTLY THE SAME----------------------------EXACTLY!
D--VERSE IS EXACTLY THE SAME----------------------------EXACTLY! X8
A--VERSE IS EXACTLY THE SAME----------------------------EXACTLY!
E--VERSE IS EXACTLY THE SAME----------------------------EXACTLY!

CHORUS
E--------------------------------------------------------------|
B---6-------4---3--1-------------7--------4---3--1-------------|
G---6-------4---3--1-------------7--------4---3--1-------------| X2
D---6-------4---3--1-------------7--------4---3--1-------------|
A--------------------------------------------------------------|
E--------------------------------------------------------------|

REFRAIN
E--------------------------------------------------------------|
B--------------------------------------------------------------|
G----4-3-1----4--4-1-------------------------------------------|
D----4-3-1----4--4-1-------------------------------------------| X2
A--------------------------------------------------------------|
E--------------------------------------------------------------|

VERSE
E--------------------------------------------------------------|
B--------------------------------------------------------------|
G--4-3-1---4--4-1----4--4-1------------------------------------| X8
D--4-3-1---4--4-1----4--4-1------------------------------------|
A--------------------------------------------------------------|
E--------------------------------------------------------------|

CHORUS
E--------------------------------------------------------------|
B----6-------4---3--1-------------6-------4---3--1-------------|
G----6-------4---3--1-------------6-------4---3--1-------------|
D----6-------4---3--1-------------6-------4---3--1-------------|
A--------------------------------------------------------------|
E--------------------------------------------------------------|

SOLO
 THE MAIN TUNE PLAYED THROUGH THE SOLO IS THE SAME AS THE VERSE


CHORUS  SO ON
.................................................................
.................................................................
.................................................................
.................................................................
.................................................................
.................................................................

BREAKDOWN
E----------------------------------------------------------------|
B----------------------------------------------------------------|
G---4-3-1---4--4-1---4--4-1-----------4-3-1---4--4-1---4--4-1111-|
D---4-3-1---4--4-1---4--4-1-----------4-3-1---4--4-1---4--4-1111-|
A----------------------------------------------------------------|
E----------------------------------------------------------------|

END ON WHAMMY BAR !  YEY!
Tap to rate this tab
 
# A B C D E F G H I J K L M N O P Q R S T U V W X Y Z