Saxon - Wheels Of Steel tab

Saxon
Wheels Of Steel
1980

Tuning: Standard

I could not find a correct tab for this anywhere. So I created this one.
It is probably not the right way to do it, but it sounds pretty damn close.
Makes me wonder why no one else did the correct tab for this great song
by a great classic band!!!!!!

Intro Power Chord
E----------------------------------------------------|
B----------------------------------------------------|
G----------------------------------------------------|
D-2 -------------------------------------------------|
A-0--------------------------------------------------|
E----------------------------------------------------|
                   Let ring out for 10 seconds


Main Riff
E---------------------------------------------------------------|
B---------------------------------------------------------------|
G---------------------------------------------------------------|
D-5----4----2---2---5---4---2--------------5---4---2------------|
A-3----2----0---0---3---2---0--------------3---2---0------------|
E------------------------------------0--0-----------------------|
                                     x  x


E---------------------------------------------------------|
B---------------------------------------------------------|
G---------------------------------------------------------|
D-7----------5----------4----------2----------------------|
A-5----------3----------2----------0----------------------|
E---------------------------------------------------------|
shes got wheels          wheels of steel



Anyone has any corrections then let me know
                          Sorry, no solo
Tap to rate this tab
 
# A B C D E F G H I J K L M N O P Q R S T U V W X Y Z