Song name
# A B C D E F G H I J K L M N O P Q R S T U V W X Y Z

Say Anything - Belt tab

Help us improve GuitareTab! Take a short survey!
-------------------------------------------------------------------------------
			     Belt - Say Anything
-------------------------------------------------------------------------------
Tabbed by: Peter Z. Ali and Alex Davis  (and slide techniques by Jesse August)
Email:pza151@stu.aii.edu

Tuning:NORMAL

ITS A TOUGH SONG TO PLAY-
a lot of this song is how he plays it, but in some parts where there are two
guitars i will show you how to play each and then an alternative so you can
play on your own and it will still sound right.

(INTRO)

e|-0-------------------------------------------------------------------------|
B|-0-------------------------------------------------------------------------|
G|-0-------------------9----------------------------9-11b--------------------|
D|---11-9-11-9-11-9-11-9-11-9-----11-9-11-9-11-9h11-9-11b--------------------|
A|---11-9-11-9-11-9-11---11-9-----11-9-11-9-11-9h11--------------------------|
E|---------------------------------------------------------------------------|

e|---------------------------------------------------------------------------|
B|---------------------------------------------------------------------------|
G|-------------------9--------------------------9-11b------------------------|
D|-11-9-11-9-11-9-11-9-11-9------9-9-9-9-9-9h11-9-11b------------------------|
A|-11-9-11-9-11-9-11---11-9------9-9-9-9-9-9h11------------------------------|
E|-------------------------------0-0-0-0-0-0---------------------------------|

e|---------------------------------------------------------------------------|
B|---------------------------------------------------------------------------|
G|-------------------9-------------------------------------------------------|
D|-11-9-11-9-11-9-11-9-11-9------9-9-11-9-9-9-11-9-9-9-11-9-9-9-11-9---------|
A|-11-9-11-9-11-9-11---11-9------9-9-9--9-9-9-9--9-9-9-9--9-9-9-9--9---------|
E|-------------------------------0-0-0--0-0-0-0--0-0-0-0--0-0-0-0--0---------|

(VERSE)

e|--------9-----------8--------------------------------------------------------|
B|--------9-----------9--------------------------------------------------------|
G|--------------------9-----(palm mute)-----------------------6-6-6-6--4-4-4---|
D|------------------------4-4-4-4--4-4-4-2---7----4-4--4-4----6-6-6-6--4-4-4---|
A|------------------------4-4-4-4--4-4-4-2---7----4-4--4-4----4-4-4-4--2-2-2---|
E|----9--------9--8-------2-2-2-2--2-2-2-0---5----2p0--2p0---------------------|

   iwouldnt...industry.... carded        me	  andtheycartedme off

e|-------9-----------8---------------------------------------------------------|
B|-------9-------(V)-9---------------------------------------------------------|
G|-------------------9--------(palm mute)--------------------------------------|
D|---11-----11-11--------4-4-4-4--4-4-4-2---7----4-4--4-4----------------------|
A|---11-----11-11--------4-4-4-4--4-4-4-2---7----4-4--4-4----------------------|
E|---9------9--8---------2-2-2-2--2-2-2-0---5----2p0--2p0----------------------|

Naked but that belt around my waist
It was my father's once

e|--4-4-4-4--4-4-4-4--4-4-4-4--4-4-------------------------------------------|
B|--5-5-5-5--4-4-4-4--5-5-5-5--4-4-------------------------------------------|
G|--6-6-6-6--6-6-6-6--6-6-6-6--6-6-------------------------------------------|
D|--6-6-6-6--6-6-6-6--6-6-6-6--6-6-------------------------------------------|
A|--4-4-4-4--4-4-4-4--4-4-4-4--4-4-------------------------------------------|
E|---------------------------------------------------------------------------|

I still see his face

e|---------------------------------------------------------------------0-----|
B|---------------------------------------------------------------------0-----|
G|------11--------------------6--------6-----4-4-------11------5--6----0-----|
D|-----------------7-------------------------4-4---------------6--7----0-----|
A|-7/9-----9--------------2/4---4--2/4-------2-2---7/9----9----6--7----0-----|
E|-------------4/5---5-----------------------------------------4--5----0-----|

  I SAID WOE OH.....      THEY CARTED ME OFF

e|--------------------------0-0-0-0-------------------------0-0-0-0------------|
B|--------------------------0-0-0-0---(repeat one time------3-0-3-0------------|
G|-6-4--6-4--6-4---9-9-9----1-1-1-1---and end with----------1-1-1-1------------|
D|-6-4--6-4--6-4---9-9-9----2-2-2-2---the 'E' cHord---------2-2-2-2------------|
A|-4-2--4-2--4-2---7-7-7----2-2-2-2----variance)--->>>>>>---2-2-2-2------------|
e|--------------------------0-0-0-0-------------------------0-0-0-0------------|


this next part is really hard, only because i am showing you 2 guitar parts
that you can play as one

for all guitarists, i will show you guitar 1 and 2, and if you DARE!- you
can try and put them together and play them as 1- which i will show you below

(GUITAR 1 FOR "I MANAGED TO ESCAPE")medium

e|---------------------------------------------------------------------------|
B|---------------------------------------------------------------------------|
G|----------9-9-9-9----------0-0-0-0----------9-9-9-9----------0-0-0-0-------|
D|----11---------------11---------------11---------------11------------------|
A|------11---------------11---------------11---------------11----------------|
E|--9-----9----------9-----9----------8-----8----------8-----8---------------|


(GUITAR 2 FOR "I MANAGED TO ESCAPE") PLAY IN ACCORDANCE WITH GUITAR 1-easy

e|-----------------------------------------------------------------------------|
B|-----------------------------------------------------------------------------|
G|---------9--9--9--9-------0--0--0--0-----------------------------------------|
D|---------11-11-11-11------11-11-11-11---------(REPEAT once)------------------|
A|---------10-10-10-10------10-10-10-10----------------------------------------|
E|-----------------------------------------------------------------------------|


(GUITAR 1 + 2- THE PART YOU WANT TO LEARN TO PLAY!)hard

e|---------------------------------------------------------------------------|
B|---------------------------------------------------------------------------|
G|---------9--9--9--9-----------0--0--0--0-----------9--9--9--9--------------|
D|---11----11-11-11-11----11----11-11-11-11----11----11-11-11-11-------------|
A|-----11--10-10-10-10------11--10-10-10-10------11--10-10-10-10-------------|
E|-9-----9--------------9-----9--------------8-----8-------------------------|

But I managed to escape the good gendarme

e|-----------------------------------------------------------------------------|
B|-----------------------------------------------------------------------------|
G|----------0--0--0--0--------(palm mute)---------------------6-6-6-6--4-4-4---|
D|----11----11-11-11-11---4-4-4-4--4-4-4-2---7----4-4--4-4----6-6-6-6--4-4-4---|
A|------11--10-10-10-10---4-4-4-4--4-4-4-2---7----4-4--4-4----4-4-4-4--2-2-2---|
E|--8-----8---------------2-2-2-2--2-2-2-0---5----2p0--2p0---------------------|

I fled through field and farm stripped of natural charm


(continue)

e|-----9----------------9------------------------------------------------------|
B|-----9----------------9------------------------------------------------------|
G|---------------------------------------------(palm mute)---------------------|
D|-------<<(4times)-------<<(4times)------4-4-4-4--4-4-4-2---7----4-4--4-4-----|
A|----------------------------------------4-4-4-4--4-4-4-2---7----4-4--4-4-----|
E|-9-9--------------8-8-------------------2-2-2-2--2-2-2-0---5----2p0--2p0-----|

Naked but that belt I wear so well
Past the pyramids

e|--4-4-4-4--4-4-4-4--4-4-4-4--4-4-------------------------------------------|
B|--5-5-5-5--4-4-4-4--5-5-5-5--4-4-------------------------------------------|
G|--6-6-6-6--6-6-6-6--6-6-6-6--6-6-------------------------------------------|
D|--6-6-6-6--6-6-6-6--6-6-6-6--6-6-------------------------------------------|
A|--4-4-4-4--4-4-4-4--4-4-4-4--4-4-------------------------------------------|
E|---------------------------------------------------------------------------|

And the liberty bell

e|--9---9--9--9--9----5--5-5-5-5----4--4-4-4-4----4--4-4-4-4-----------------|
B|--10--10-10-10-10---5--5-5-5-5----5--5-5-5-4----5--5-5-5-4-----------------|
G|--11--11-11-11-11---6--6-6-6-6----6--6-6-6-6----6--6-6-6-6-----------------|
D|--11--11-11-11-11---7--7-7-7-7----6--6-6-6-6----6--6-6-6-6-----------------|
A|--9---9--9--9--9----7--7-7-7-7----4--4-4-4-4----4--4-4-4-4-----------------|
E|--------------------5--5-5-5-5---------------------------------------------|

They carted me off
yeah woah oh oh

e|--9---9--9--9--9----5--5-5-5-5-----x-x-x-------------------------------------|
B|--10--10-10-10-10---5--5-5-5-5-----x-x-x-------------------------------------|
G|--11--11-11-11-11---6--6-6-6-6-----x-x-x--(palm mute)------------------------|
D|--11--11-11-11-11---7--7-7-7-7-----7-7-7-------------------------------------|
A|--9---9--9--9--9----7--7-7-7-7-----7-7-7-------------------------------------|
E|--------------------5--5-5-5-5-----0-0-0-------------------------------------|

					They carted me

e|-------------------------------------------x-x-x---------------------------|
B|-------------------------------------------0-0-0---------------------------|
G|--4-4-4-4--4-4-4-4---4-4-4-4---4-4-4-4-----2-2-2--(strum)------------------|
D|--2-2-2-2--2-2-2-2---4-4-4-4---1-1-1-1-----2-2-2---------------------------|
A|--2-2-2-2--2-2-2-2---2-2-2-2---2-2-2-2-----0-0-0---------------------------|
E|--0-0-0-0--0-0-0-0---0-0-0-0---0-0-0-0-------------------------------------|

Hey this is something I have to do for myself

e|-------------------------------------------x-x-x---------------------------|
B|-------------------------------------------0-0-0---------------------------|
G|--4-4-4-4--4-4-4-4---2-2-2-2---2-2-2-2-----2-2-2--(strum)------------------|
D|--2-2-2-2--2-2-2-2---4-4-4-4---6-6-6-6-----2-2-2---------------------------|
A|--2-2-2-2--2-2-2-2---2-2-2-2---2-2-2-2-----0-0-0---------------------------|
E|--0-0-0-0--0-0-0-0---0-0-0-0---0-0-0-0-------------------------------------|

yeah, I have to for myself, i have to for myself,

e|------strum asnecessary--------------0---------------------------------------|
B|-------------------------------------0---------------------------------------|
G|----4----------------4---------------2--(4 count)-----repeat 2 times---------|
D|----2--(2 count)-----2--(2 count)----2---------------------------------------|
A|----4----------------2-------------------------------------------------------|
E|-----------------------------------------------------------------------------|

i have to for myself, yeah, yeah

e|-----------------------------------------------------------------------------|
B|-----------------------------------------------------------------------------|
G|--------------------------------------------------------6------------4-4-4---|
D|--11------------11------------4------------7------------6-(3 count)--4-4-4---|
A|--11-(4 count)--11-(4 count)--4-(2 count)--7-(2 count)--4------------2-2-2---|
E|--9-------------8-------------2------------5---------------------------------|

i ignored the sheep and shepherds on my way
What can their small words say
When they say them that way

e|-----9----------------9------------------------------------------------------|
B|-----9----------------9------------------------------------------------------|
G|---------------------------------------------(palm mute)---------------------|
D|-------<<(4times)-------<<(4times)------4-4-4-4--4-4-4-2---7----4-4--4-4-----|
A|----------------------------------------4-4-4-4--4-4-4-2---7----4-4--4-4-----|
E|-9-9--------------8-8-------------------2-2-2-2--2-2-2-0---5----2p0--2p0-----|

Bathed in sweat and feathered as a crow
I laid a beating on the sleet and snow
With my frostbitten toes.


e|---------------------------------------------------------------------------|
B|---------------------------------------------------------------------------|
G|--6-6-6-6---4-4-4----------------------------------------------------------|
D|--6-6-6-6---4-4-4----------------------------------------------------------|
A|--4-4-4-4---2-2-2----------------------------------------------------------|
E|---------------------------------------------------------------------------|

(GUITAR 1 FOR "I remain unrecognized")medium

e|--9-----9--------------9-----9----------|
B|--9-----9--------------9-----9----------|
G|--10----10------------------------------|
D|--11----11-----10---10----10------------|
A|--11----11-----10---10----10------------|
E|--9-----9------8----8-----8-------------|


(GUITAR 2 FOR "I remain unrecognized")easy

e|------------------------------------------------------------|
B|------------------------------------------------------------|
G|----12-12-12-----12-12-12------12-12-12------12-------12----|
D|----11-11-11-----11-11-11------11-11-11------11-------11----|
A|------------------------------------------------------------|
E|------------------------------------------------------------|


(GUITAR 1 + 2 FOR "I remain unrecognized")medium what you want to learn

e|---------------------------------------------------------------------------|
B|---------------------------------------------------------------------------|
G|------12-12-12-----12-12-12------12-12-12------12-------12-----------------|
D|------11-11-11-----11-11-11------11-11-11------11-------11-----------------|
A|---------------------------------------------------------------------------|
E|--9-9----------9-9-----------8-8-----------8-8------8-8--------------------|

(continued)
e|-------------------------------------------------------|
B|-------------------------------------------------------|
G|-(palm mute)-------------------------6-6-6-6--4-4-4----|
D|-4-4-4-4--4-4-4-2---7----4-4--4-4----6-6-6-6--4-4-4----|
A|-4-4-4-4--4-4-4-2---7----4-4--4-4----4-4-4-4--2-2-2----|
E|-2-2-2-2--2-2-2-0---5----2p0--2p0----------------------|

Beneath my monstrous gown
Of feather and down

e|---------------------------------------------------------------------------|
B|---------------------------------------------------------------------------|
G|--6-6--6-6-6--6-6-6--6-6-6--6-6-6--6-6-6--6-6-6--6-6-6--6------------------|
D|--6-6--6-6-6--6-6-6--6-6-6--6-6-6--6-6-6--6-6-6--6-6-6--6---4--------------|
A|--4-4--4-4-4--4-4-4--4-4-4--4-3-3--3-3-3--3-3-3--3-3-3--3---4-(2count)-----|
E|------------------------------------------------------------2--------------|

But I gathered up and army made of those
Who aimed to shake them
From their repose

e|-----------------------------------------------------------------------------|
B|-----------------------------------------------------------------------------|
G|---------------6-------------------------------------------------------------|
D|--7------------6-(3 count)---------------------------------------------------|
A|--7-(2 count)--4-------------------------------------------------------------|
E|--5--------------------------------------------------------------------------|


e|--9---9--9--9--9----5--5-5-5-5----4--4-4-4-4----4--4-4-4-4-----------------|
B|--10--10-10-10-10---5--5-5-5-5----5--5-5-5-4----5--5-5-5-4-----------------|
G|--11--11-11-11-11---6--6-6-6-6----6--6-6-6-6----6--6-6-6-6-----------------|
D|--11--11-11-11-11---7--7-7-7-7----6--6-6-6-6----6--6-6-6-6-----------------|
A|--9---9--9--9--9----7--7-7-7-7----4--4-4-4-4----4--4-4-4-4-----------------|
E|--------------------5--5-5-5-5---------------------------------------------|

And we took up weapons
And we took off our clothes
And we took up weapons

e|--9---9--9--9--9----5--5-5-5-5-----x-x-x-------------------------------------|
B|--10--10-10-10-10---5--5-5-5-5-----x-x-x-------------------------------------|
G|--11--11-11-11-11---6--6-6-6-6-----x-x-x---(palm mute)-----------------------|
D|--11--11-11-11-11---7--7-7-7-7-----7-7-7-------------------------------------|
A|--9---9--9--9--9----7--7-7-7-7-----7-7-7-------------------------------------|
E|--------------------5--5-5-5-5-----0-0-0-------------------------------------|

				     And we took off our...

e|-------------------------------------------x-x-x---------------------------|
B|-------------------------------------------0-0-0---------------------------|
G|--4-4-4-4--4-4-4-4---4-4-4-4---4-4-4-4-----2-2-2--(strum)------------------|
D|--2-2-2-2--2-2-2-2---4-4-4-4---1-1-1-1-----2-2-2---------------------------|
A|--2-2-2-2--2-2-2-2---2-2-2-2---2-2-2-2-----0-0-0---------------------------|
E|--0-0-0-0--0-0-0-0---0-0-0-0---0-0-0-0-------------------------------------|

Hey, this is something i have to do for myself

e|-------------------------------------------x-x-x---------------------------|
B|-------------------------------------------0-0-0---------------------------|
G|--4-4-4-4--4-4-4-4---2-2-2-2---2-2-2-2-----2-2-2--(strum)------------------|
D|--2-2-2-2--2-2-2-2---4-4-4-4---6-6-6-6-----2-2-2---------------------------|
A|--2-2-2-2--2-2-2-2---2-2-2-2---2-2-2-2-----0-0-0---------------------------|
E|--0-0-0-0--0-0-0-0---0-0-0-0---0-0-0-0-------------------------------------|

Yeah, this is something i have to do for myself

e|------strum as necessary--------------0--------------------------------------|
B|--------------------------------------0--------------------------------------|
G|----4----------------4----------------2--(4 count)-----repeat 2 times--------|
D|----2--(2 count)-----2--(2 count)-----2--------------------------------------|
A|----4----------------2-------------------------------------------------------|
E|-----------------------------------------------------------------------------|

I have to for myself, i have to for myself yeah

e|--------------------------------------------------|
B|--------------------------------------------------|
G|----4----4----4---4-----4-------------------------|
D|------------2---2---4/6---------(repeat 4 times)--|
A|--4----0------------------------------------------|
E|--------------------------------------------------|

So what say you
And all your friends
Meet all of my friends
In the alley tonight yeah

e|----------------------------------------------------|
B|----------------------------------------------------|
G|---6-6--2-2-----------------------------------------|
D|---6-6--2-2--2-2--2-2---(repeat till it ends!!!)----|
A|---4-4--0-0--2-2--2-2-------------------------------|
E|-------------0-0--0-0-------------------------------|

What say you (what say you)
And all your friends (and all your friends)
Step up to my friends ( my friends)
In the alley tonight, yeah
What say you (what say you)
And all your friends (and all your friends)
meet all of my friends ( my friends)
In the alley tonight, yeah
What say you (what say you)
And all your friends (and all your friends)
Step up to my friends ( my friends)
In the alley tonight


(very end)
e|--------------------------------|
B|--------------------------------|
G|---2-2-2------------------------|
D|---2-2-2----2---(let ring)------|
A|---0-0-0----2-------------------|
E|------------0-------------------|
          yeah!!!


| v  VARIANCE/ CHANGES THROUGHTOUT SONG
| /  slide up
|   slide down ---slide techniques by JA
| h  hammer-on
| p  pull-off
| ~  vibrato
| +  harmonic
| x  Mute note

===============================================================================
Related for Belt tab