Song name
# A B C D E F G H I J K L M N O P Q R S T U V W X Y Z

Say Anything - Anti-anti tab

Anti-Anti by Say Anything Tab

This is off of their rarities album released in January and hasnt been tabbed yet so I
took a few minutes to transcribe it. This is just the rhythm part, but the song is in the
key of C#m if you want to play a lead part over this. This is a very simple song because 
its just the same chords and notes in different rhythms. enjoy

Intro x3
--------------------------------|-------------------------------|
--------------------------------|-------------------------------|
--------------------------------|x2-----------------------------|
--------------------------------|-------------------------------|
-44-2222-0000-2222-4444-2222-00-|----44-4444-44-4-22-2222-22-2--|
--------------------------------|-------------------------------|

Verse x4
---------------------------------------------------------|
---------------------------------------------------------|
--6-666-666-666----4-444-444-444----2-222-222-222---2~---|
--6-666-666-666----4-444-444-444----2-222-222-222---2~---|
--4-444-444-444----2-222-222-222----0-000-000-000---0~---|
---------------------------------------------------------|


Chorus x2
--------------------------------------------------------------------|
--------------------------------------------------------------------|
--6-666-666-666----4-444-444-444----2-222-222-222----4-444-444-444--|
--6-666-666-666----4-444-444-444----2-222-222-222----4-444-444-444--|
--4-444-444-444----2-222-222-222----0-000-000-000----2-222-222-222--|
--------------------------------------------------------------------|

Punks will call me sell out part
----------------|
----------------|
-4~---------2~--|
-4~---------2~--|
-2~---------0~--|
----------------|

Verse x4
---------------------------------------------------------|
---------------------------------------------------------|
--6-666-666-666----4-444-444-444----2-222-222-222---2~---|
--6-666-666-666----4-444-444-444----2-222-222-222---2~---|
--4-444-444-444----2-222-222-222----0-000-000-000---0~---|
---------------------------------------------------------|

Chorus
--------------------------------------------------------------------|
--------------------------------------------------------------------|
--6-666-666-666----4-444-444-444----2-222-222-222----4-444-444-444--|
--6-666-666-666----4-444-444-444----2-222-222-222----4-444-444-444--|x2
--4-444-444-444----2-222-222-222----0-000-000-000----2-222-222-222--|
--------------------------------------------------------------------|

Punks will call me sell out part
----------------|
----------------|
-4~---------2~--|
-4~---------2~--|
-2~---------0~--|
----------------|

Outro x2
-------------------------------------------------------------|
-------------------------------------------------------------|
-------------------------------------------------------------|
-------------------------------------------------------------|
-------------------------------------------------------------|
-99-999-999-999-77-777-777-777-55-555-555-555-77-777-777-777-|

All down strokes
---------------------------------------------------------|
---------------------------------------------------------|
-6----4----2---------------------------------------------|
-6-x8-4-x8-2-x16-----------------------------------------|
-4----2----0---------------------------------------------|
---------------------------------------------------------|

Chorus
--------------------------------------------------------------------|
--------------------------------------------------------------------|
--6-666-666-666----4-444-444-444----2-222-222-222----4-444-444-444--|
--6-666-666-666----4-444-444-444----2-222-222-222----4-444-444-444--|x2
--4-444-444-444----2-222-222-222----0-000-000-000----2-222-222-222--|
--------------------------------------------------------------------|

Punks will call me sell out part
----------------|
----------------|
-4~---------2~--|
-4~---------2~--|
-2~---------0~--|
----------------|

Outro x2                                                       second time end on this
----------------------------------------------|----------------|------|
----------------------------------------------|----------------|------|
----------------------------------------------|----------------|------|
----------------------------------------------|----------------|--9~--|
----------------------------------------------|----------------|--9~--|
-99-999-999-999-77-777-777-777-55-555-555-555-|-77-777-777-777-|--7~--|
Tap to rate this tab
# A B C D E F G H I J K L M N O P Q R S T U V W X Y Z