Song name
# A B C D E F G H I J K L M N O P Q R S T U V W X Y Z

Say Anything - Signal The Riflemen tab

|---------------------------------------|
|---------------------------------------|
|---------7--9--7-----------------------|
|---10-------------10---7---10----------|
|--------------------------------10-----|
|---------------------------------------|

|---------------------------------------|
|---------------------------------------|
[---------------------------------------|
|--7--9--10--------9--10-------9--10----|
|---------------10-----------8----------|x2
|-------------------------------------8-|

Tap to rate this tab
# A B C D E F G H I J K L M N O P Q R S T U V W X Y Z