Song name
# A B C D E F G H I J K L M N O P Q R S T U V W X Y Z

Say Anything - Ants In My Pants tab

----------------------------------------------------------------------------
		         Ants in my pants - Say Anything
----------------------------------------------------------------------------
Tabbed by: Drawtheline
Email:

Tuning: Standard

*Listen for chord changes*

Verse
e|-------------------------------------------------------------------------|
B|-------------------------------------------------------------------------|
G|-------9---------9------9-----9-----9------------------------------------|
D|-------7---------9------7-----7-----7------------------------------------|
A|-------9---------7------5-----4-----5------------------------------------|
E|-------------------------------------------------------------------------|

Pre chorus
e|-------------------------------------------------------------------------|
B|-------------------------------------------------------------------------|
G|-----------9---------9-------9-------------------------------------------|
D|-----------7---------9-------7-------------------------------------------|
A|-----------9---------7-------5-------------------------------------------|
E|-------------------------------------------------------------------------|

Chorus
e|-------------------------------------------------------------------------|
B|---------------------------------------x1----------------------x2--------|
G|---------7-------------------------7------9----9----7--------------------|
D|---------7--------7---------9------7------7----9----7--------------------|
A|---------5--------7---------9------5------9----7----5--------------------|
E|------------------5---------7--------------------------------------------|

These are all the chords you need. The bridge is almost exactly like the verse.
There are also diffrent ways to play the chords i just tried to make it simple so you 
get the feel.
Tap to rate this tab
# A B C D E F G H I J K L M N O P Q R S T U V W X Y Z