Song name
# A B C D E F G H I J K L M N O P Q R S T U V W X Y Z

Say Anything - Cemetery tab

Say Anything - Cemetery

Tuned down half a step and drop D. ( but you don't have to)


"There's a cemetery deep below the sea..."
Eb |-----------------------------------------|
Bb |-----------------------------------------|
Gb |-----------------------------------------|
Db |--0--12---7--7---------------------------|
Ab |--0--9----4--5---------------------------|
Db |--0--9----4--5---------------------------|


"You're in my body..."
Eb |--------------------------------------|
Bb |--------------------------------------|
Gb |-------7----------9-------------------|
Db |--7----0------0---0-------------------|
Ab |--5----x------0---x-------------------|
Db |--5----9------0---7-------------------|

"If you want to when we die"
Eb |---------------------------------------|
Bb |---------------------------------------|
Gb |------7--------7---6-------------------|
Db |--7---0---7----0---0-------------------|
Ab |--5---x---5----x---x-------------------|
Db |--5---9---5----9---7-------------------|

"There's noone who imagines like you"
Eb |-------------------------------------|
Bb |-------------------------------------|
Gb |-------------------------------------|
Db |--0----12----7---7-------------------|
Ab |--0-----9----4---5-------------------|
Db |--0-----9----4---5-------------------|


"Last Cigarette...Last percocet..."
Eb |--------------------------------------|
Bb |--------------------------------------|
Gb |--------------------------------------|
Db |--7----4----0-------------------------|
Ab |--5----2----0-------------------------|
Db |--5----2----0-------------------------|
PM-PM-PM

Build-up after bridge.
Eb |---------------------------------------|
Bb |---------------------------------------|
Gb |--6----7-------------------------------|
Db |--7----7-------------------------------|
Ab |--5----5-------------------------------|
Db |--5----5-------------------------------|


"If you want to when we die...."
Eb |------------------------------------------|
Bb |------------------------------------------|
Gb |-------7---------7----6-------------------|
Db |--7----0----7----0----0-------------------|
Ab |--5----x----5----x----x-------------------|
Db |--5----9----5----9----7-------------------|

End on
Eb |------------------------------------|
Bb |------------------------------------|
Gb |------------------------------------|
Db |--7---------------------------------|
Ab |--5---------------------------------|
Db |--5---------------------------------|

enjoy
Tap to rate this tab
 
# A B C D E F G H I J K L M N O P Q R S T U V W X Y Z