Guitaretab - guitar tabs
Song name
# A B C D E F G H I J K L M N O P Q R S T U V W X Y Z

Say Anything - Color Blind tab

E-mail: mochirestani@hotmail.com

Intro(this is also the verse):

Guitar 1:
e|-----------------------------------|
B|-----------------------------------|
G|-----------------------------------|
D|--------666666-5-6666665-----------|
A|--------888888-6-4444444-----------|
E|-----------------------------------|

Guitar 2:

e|-----------------------------------|
B|-----------------------------------|
G|-----------------------------------|
D|----5-6-5h6p5/2~~~5----6~~---------|
A|-----------------------------------|
E|-----------------------------------|

Guitar 1 plays intro

Guitar 2(Palm Muted):  0:31

e|-----------------------------------|
B|-----------------------------------|
G|-13--1213---161617---1213-----17---|
D|-xx--xxxx---xxxxxx---xxxx-----xx---|
A|-11--1011---141415---1011-----15---|
E|-----------------------------------|
                           PM...

e|-----------------------------------|
B|-----------------------------------|
G|-1617---1312-------1313------------|
D|-xxxx---xxxx-------xxxx------------|
A|-1415---1110-------1111------------|
E|-----------------------------------|

Chorus 0:49-1:09
[ Tab from: http://www.guitaretab.com/s/say-anything/178423.html ]
e|------------------------------------|
B|------------------------------------|
G|-6-6-----3-3------6-6-----888888888-|
D|-6-6-6-6-3-3-3-3--6-6-6-6-888888888-|
A|-4-4-6-6-1-1-3-3--4-4-6-6-666666666-|
E|-----4-4-----1-1------4-4-----------|

Post-Chorus

Guitar 1:
e|-----------------------------------|
B|-----------------------------------|
G|-10xxxxxx-8-6xxxxxxx-8-10xxxxxx----|  3x
D|-10xxxxxx-8-6xxxxxxx-8-10xxxxxx----|
A|-8xxxxxxx-6-4xxxxxxx-6-8xxxxxxx----|
E|-----------------------------------|


Guitar 2
e|-----------------------------------|
B|-----------------------------------|
G|-1213---13131313131313-------------|
D|-xxxx---xxxxxxxxxxxxxx-------------|
A|-1011---11111111111111-------------|
E|-----------------------------------|

Verse 2:

Both Guitars
e|-----------------------------------|
B|-----------------------------------|
G|-1010xxx-8-66xxxx-8-1010xxxxxx-----|
D|-1010xxx-8-66xxxx-8-1010xxxxxx-----|
A|-88xxx---6-44xxxx-6-88xxxxxx-------|
E|-----------------------------------|

e|-----------------------------------|
B|-----------------------------------|
G|-55xxxxxx---8888888-1010101010-----|
D|-55xxxxxx---8888888-1010101010-----|
A|-33xxxxxx---6666666-8888888888-----|
E|-----------------------------------|


Chorus

Solo
(i will upload the solo later)


Chorus

I will also upload the last part of the song because i uploaded the tab only listening 
the song and did not had the guitar with me
Related for Color Blind tab
×
Color Blind