Song name
# A B C D E F G H I J K L M N O P Q R S T U V W X Y Z

Say Hi To Your Mom - Super tab

Theres only guitar in the end of this song but i think there is a little bit in the chorus so i put that in.

Chorus
E|----------------|----------------|----------------|----------------|
B|----------------|----------------|----------------|----------------|
G|----------------|----------------|----------------|----------------|
D|----------------|3---3---3---3---|2---2---2---2---|----------------|
A|0---0---0---0---|----------------|----------------|0---0---0---0---|
E|----------------|----------------|----------------|----------------|

Interlude
E|----------------|----------------|----------------|----------------|
B|----------------|----------------|----------------|----------------|
G|--2-------2-----|----------------|----------------|--2-------2-----|
D|------2-------2-|--3-------3-----|--2-------2-----|------2-------2-|
A|0---0---0---0---|------3-------3-|------2-------2-|0---0---0---0---|
E|----------------|1---1---1---1---|0---0---0---0---|----------------|

That's pretty much it for guitar, bye!
Tap to rate this tab
# A B C D E F G H I J K L M N O P Q R S T U V W X Y Z