Song name
# A B C D E F G H I J K L M N O P Q R S T U V W X Y Z

Saybia - I Surrender tab

Hi there,

This is the chordīs from:
Saybia - I Surrender

-------------------------------------------------------
INTRO:

E--7---7--7---5--5---4--4---3---3--3---2--2----------2---|
B--7---7--7---7--7---6--6---5---5--5---2--2---3--3---4---|
G--7---7--7---7--7---6--6---5---5--5---0--0---4--4---4---|
D---------------------------------------------5--5-------|
A--------------------------------------------------------|
E--------------------------------------------------------|

E--7---7--7---5--5---4--4---3---3--3---2--2----------2---|
B--7---7--7---7--7---6--6---5---5--5---2--2---3--3---4---|
G--7---7--7---7--7---6--6---5---5--5---0--0---4--4---4---|
D---------------------------------------------5--5-------|
A--------------------------------------------------------|
E--------------------------------------------------------|


Bm                                D
A million suns are glowing in the night
             F#m
everything is quiet
                   A
except for all the voices in my head
              Bm
that say your name
                    D
tonight I'm letting go
              F#m      E
about to give iiiiiiiiiin

A    E
I surrender myself
Bm                 D                   E A
into the arms of a beautiful stranger
A    E                Bm
I surrender myself to you
   D
To you

A    E
I surrender myself
Bm                 D                  E A
into the arms of a beautiful stranger
A    E                Bm
I surrender myself to you
   D
To you

There is only one bridge left for me
my heart is almost free
Beautiful by my side
but all I think about is you
tonight I'm letting go
about to give in


--------------------------------------------------------------------

A    E
I surrender myself
Bm                 D                  E A
into the arms of a beautiful stranger
A    E                Bm
I surrender myself to you
   D
To you


A    E
I surrender myself
Bm                 D                  E A
into the arms of a beautiful stranger
A    E                Bm
I surrender myself to you
                A    E    Bm   D
Who really loves me
                A    E    Bm   D
you really love me
              A     E   Bm   D
My beautiful stranger
    A           E       B      A
you really love me like I love you.

-------------------------------------------------------
OUTRO:

E--7---7--7---5--5---4--4---3---3--3---2--2----------2---|
B--7---7--7---7--7---6--6---5---5--5---2--2---3--3---4---|
G--7---7--7---7--7---6--6---5---5--5---0--0---4--4---4---|
D---------------------------------------------5--5-------|
A--------------------------------------------------------|
E--------------------------------------------------------|

E--7---7--7---5--5---4--4---3---3--3---2--2----------2---|
B--7---7--7---7--7---6--6---5---5--5---2--2---3--3---4---|
G--7---7--7---7--7---6--6---5---5--5---0--0---4--4---4---|
D---------------------------------------------5--5-------|
A--------------------------------------------------------|
E--------------------------------------------------------|

Enjoy!! :D :D
Tap to rate this tab
# A B C D E F G H I J K L M N O P Q R S T U V W X Y Z