Song name
# A B C D E F G H I J K L M N O P Q R S T U V W X Y Z

Saybia - Untitled tab

    Em*           D
E---7-----    E---10-------|
B---8-----    B---7--------|
G---9-----    G---7--------|
D---------    D------------|
A---------    A------------|
E---------    E------------|

*You do best, if you place your index finger on the 7th fret covering the first, 
second and third string, 
then you just have to switch with your little finger to the 10th fret for D


Riff 1

Rythm   |           |           |           |           |

    E---7-----------7---7---------7---------7----------|
    A-------8-------------8---------8-----------8------|
    D-----------9-----------9----------9------------9~-| repeat once
    G--------------------------------------------------|
    B--------------------------------------------------|
    E--------------------------------------------------|


Riff 2

Rythm   |           |           |           |           |

    E---10----------10--10--------10--------10---------|
    A-------7-------------7---------7-----------7------|
    D-----------7-----------7----------7------------7~-| repeat once
    G--------------------------------------------------|
    B--------------------------------------------------|
    E--------------------------------------------------|


Actually, that's not the riff really used, but i think it just fits the song

And this is all, that's played throughout the Verses.
Of course there are several variations, for example you can use the 10th, 8th and 
7th fret on the 1st string, 
the same on the 1nd and the 9th and 7th on the 3rd string.

The there's the solo part, starting at about 5:55 I think.

For the rythm listen to the song

    E--------------------------------------------------|
    A-----------8-------8--------8---------------------|
    D-----7-h9-----9~------9--7----(7~)----------------|
    G--------------------------------------------------|
    B--------------------------------------------------|
    E--------------------------------------------------|


    E--------------------------------------------------|
    A------------8-s10~~--------10---10---10----8---7--|
    D-----7-7-h9------------7-----7----7----7----------|
    G--------------------------------------------------|
    B--------------------------------------------------|
    E--------------------------------------------------|


    E--------------------------------------------------|
    A-----------8-------8--------8---------------------|
    D-----7-h9-----9~------9--7------------------------|
    G--------------------------------------------------|
    B--------------------------------------------------|
    E--------------------------------------------------|


    E---------------------------------------------------------------|
    A------------8-s10~~------10-10--10-10--10-10--10--8---7--8--10-|
    D-----7-7-h9------------7-------7------7------7---7---7--7--7---|
    G---------------------------------------------------------------|
    B---------------------------------------------------------------|
    E---------------------------------------------------------------|


    E----------------------------------------------------------------------|
    A----------------------------------------------------------------------|
    D----7--9~--9--7-9--7-9~---7-9-7-9s11~--11--9-11-9-11~---9-11-9-11s12~-|
    G----------------------------------------------------------------------|
    B----------------------------------------------------------------------|
    E----------------------------------------------------------------------|


    E---------------------------------------------------------------|
    A---------------------------------------------------------------|
    D---12-12-12-9-7-7--9s12~--12--12--9--7-7--9s12--12--9--7-7-9-7-|
    G---------------------------------------------------------------|
    B---------------------------------------------------------------|
    E---------------------------------------------------------------|


    E---------------------------------------------------------------------|
    A-------10s12-12-12-12-12-12-12-12-12-12-12-12-12-12--12--10-8--10s12-|
    D-7--9----------------------------------------------------------------|
    G---------------------------------------------------------------------|
    B---------------------------------------------------------------------|
    E---------------------------------------------------------------------|


    E-----------------------------------------------------------------------------------------|
    A----12---10-----10-----10-----10--10(b12-12-12-12-12-12)-10-10-10-10-10-10(b12-12-12-12)-|
    D-----------7---7--7---7--7---7--7--------------------------------------------------------|
    G-----------------------------------------------------------------------------------------|
    B-----------------------------------------------------------------------------------------|
    E-----------------------------------------------------------------------------------------|


                E          G           A     A

    E-------------------------------------------------------------------|
    B-------------------------------------------------------------------|
    G-----------9----------12----------14----14-14-14-14-14-14-14-14-14-| repeat twice
    D-----------9----------12----------14----14-14-14-14-14-14-14-14-14-|
    A-----------7----------10----------12----12-12-12-12-12-12-12-12-12-|
    E-------------------------------------------------------------------|


        G                                  F#
                                                         (Just as long as I'm...
    E---------------------------------------------------------------------|
    B---------------------------------------------------------------------|
    G---12--12--12--12--12--12--12--12-----11--11--11--11--11--11--11--11-|
    D---12--12--12--12--12--12--12--12-----11--11--11--11--11--11--11--11-|
    A---10--10--10--10--10--10--10--10------9---9---9---9---9---9---9---9-|
    E---------------------------------------------------------------------|



        E             D             B           B
     ...here)
    E---------------------------------------------------------------------|
    B---------------------------------------------------------------------|
    G---9--9--9--9----7--7--7--7----4--4--4--4--4--4--4--4----------------| repeat once
    D---9--9--9--9----7--7--7--7----4--4--4--4--4--4--4--4----------------|
    A---7--7--7--7----5--5--5--5----2--2--2--2--2--2--2--2----------------|
    E---------------------------------------------------------------------|



...B    C             B
(Let me ease your     pain
    E---------------------------------------------------------------------|
    B---------------------------------------------------------------------|
    G---5--5--5--5----4--4--4--4------------------------------------------| repeat once
    D---5--5--5--5----4--4--4--4------------------------------------------|
    A---3--3--3--3----2--2--2--2------------------------------------------|
    E---------------------------------------------------------------------|


...B    C             D         
(Let me ease yo- ur   pain    to-   night
    E----------------------------| |
    B----------------------------| |Riff 1 twice, Riff 2 twice
    G---5--5--5--5----4--4--4--4-| |
    D---5--5--5--5----4--4--4--4-| |
    A---3--3--3--3----2--2--2--2-| |
    E----------------------------| |


        G              A              B           B

    E---------------------------------------------------------------------|                    \
    B---------------------------------------------------------------------|                     \
    G---12-12-12-12----14-14-14-14----16-16-16-16-16-16-16-16-------------| repeat three times   |
    D---------------------------------------------------------------------|                      |
    A---10-10-10-10----12-12-12-12----14-14-14-14-14-14-14-14-------------|                      |
    E---------------------------------------------------------------------|                      |
                                                                                                 |
                                                                                     repeat twice
        C              B              Bb          Bb                                             /
                                                                                                 |
    E---------------------------------------------------------------------|                      |
    B---------------------------------------------------------------------|                      |
    G---17-17-17-17----16-16-16-16----15-15-15-15-15-15-15-15-------------|                      |
    D---------------------------------------------------------------------|                      |
    A---15-15-15-15----14-14-14-14----13-13-13-13-13-13-13-13-------------|                     /
    E---------------------------------------------------------------------|                    /

End on Em

    E--------|
    B--8-----|
    G--9-----|
    D--9-----|
    A--7-----|
    E--------|
Tap to rate this tab
 
# A B C D E F G H I J K L M N O P Q R S T U V W X Y Z