Song name
# A B C D E F G H I J K L M N O P Q R S T U V W X Y Z

Scandal - Shojo S tab

-----------------------------------------------------------------
Shoujo S - SCANDAL
-----------------------------------------------------------------
Tabbed by: rreizend
Email: raging_skullz@hotmail.com
Tuning: E A D G B E

Note: this is my first tab (and the first one to make one for this song in full i 
think) but im sure this is 99% correct, 
      if there are any mistakes please tell me

E|---------------------------------------------------------------|
B|-----16-14-11---------------------------11-11-13-14--14-13-11--|
G|--------------13-11-13-13b-11-----------11-11-13-14--14-13-11--|   Intro 2x 
D|--13--------------------------13-11-13--11-11-13-14--14-13-11--|
A|---------------------------------------------------------------|
E|---------------------------------------------------------------|

   [dont play this part the 2nd time]
E|---------------------------------------------------------------|
B|--14-13-11-----------------------------------------------------|
G|--14-13-11-----------------------------------------------------|
D|--14-13-11-----------------------------------------------------|
A|---------------------------------------------------------------|
E|---------------------------------------------------------------|

E|---------------------------------------------------------------|
B|---------------------------------------------------------------|
G|--8-8----------------------------------------------------------|   Verse #1 4x
D|--8-8---4-4---6-6---9-9----------------------------------------|
A|--6-6---4-4---6-6---9-9----------------------------------------|
E|--------2-2---4-4---7-7----------------------------------------|

E|---------------------------------------------------------------|
B|---------------------------------------------------------------|
G|--8-8-8-8------------------------------------------------------|   Verse #2 4x [fast strokes]
D|--8-8-8-8--4-4-4-4--8-8-8-8--9-9-9-9---------------------------|
A|--6-6-6-6--4-4-4-4--8-8-8-8--9-9-9-9---------------------------|
E|-----------2-2-2-2--6-6-6-6--7-7-7-7---------------------------|

E|---------------------------------------------------------------|
B|---------------------------------------------------------------|
G|---------------------------------------------------------------|   Pre-Chorus-
D|--9-9-9-9-9-9-9-9---4-4-4-4-4-4-4-4---6-6-6-6-6-6-6-6----------|
A|--9-9-9-9-9-9-9-9---4-4-4-4-4-4-4-4---6-6-6-6-6-6-6-6----------|
E|--7-7-7-7-7-7-7-7---2-2-2-2-2-2-2-2---4-4-4-4-4-4-4-4----------|

E|---------------------------------------------------------------|
B|---------------------------------------------------------------|
G|--------------------4-4-4-4-4-4-4-4----------------------------|   -continued-
D|--4-4-4-4-4-4-4-4---4-4-4-4-4-4-4-4---4-4-4-4-4-4-4-4----------|
A|--4-4-4-4-4-4-4-4---2-2-2-2-2-2-2-2---4-4-4-4-4-4-4-4----------|
E|--2-2-2-2-2-2-2-2---------------------2-2-2-2-2-2-2-2----------|

E|---------------------------------------------------------------|
B|---------------------------------------------------------------|
G|---------------------------------------------------------------|   -continued 
D|--6-6-6-6-6-6-6-6---8--8-8-8-8---------------------------------|
A|--6-6-6-6-6-6-6-6---8--8-8-8-8---------------------------------|
E|--4-4-4-4-4-4-4-4---6--6-6-6-6---------------------------------|



Play this when the other guitar is playing the 8 part
                                               8
                                               6
E|---------------------------------------------------------------|
B|---------------------------------------------------------------|
G|---------------15----------------------------------------------|
D|------12-13-15-------------------------------------------------| 
A|--/13----------------------------------------------------------|
E|---------------------------------------------------------------|


                                                                     Chorus #1 same as Verse #2


Chorus #2 [4 is the same as 9 whichever doesn't matter]
           4                9
           2                7
E|---------------------------------------------------------------|
B|---------------------------------------------------------------|
G|--4-4-4-4--6-6-6-6--8-8-8-8------------------------------------|
D|--4-4-4-4--6-6-6-6--8-8-8-8--6-6-6-6--9-9-9-9------------------|
A|--2-2-2-2--4-4-4-4--6-6-6-6--6-6-6-6--9-9-9-9------------------|
E|-----------------------------4-4-4-4--7-7-7-7------------------|

E|---------------------------------------------------------------|
B|--11--11-11-11---------------16-14-11--------------------------|
G|---------------13-11-------------------13-11-13-13b-11---------|
D|---------------------13-11-13--------------------------13-11-13|
A|---------------------------------------------------------------|
E|---------------------------------------------------------------|

E|---------------------------------------------------------------|
B|--11--11-13-14--14-13-11--11-11--------------------------------|
G|--11--11-13-14--14-13-11--11-11--------------------------------|
D|--11--11-13-14--14-13-11--11-11--------------------------------|
A|---------------------------------------------------------------|
E|---------------------------------------------------------------|

   Verse #3 4x [up and down strokes]
E|---------------------------------------------------------------|
B|---------------------------------------------------------------|
G|--8-8-8--------------------------------------------------------|
D|--8-8-8--4-4-4--6-6-6--9-9-9-----------------------------------|
A|--6-6-6--4-4-4--6-6-6--9-9-9-----------------------------------|
E|---------2-2-2--4-4-4--7-7-7-----------------------------------|


E|---------------------------------------------------------------|
B|---------------------------------------------------------------|
G|---------------------------------------------------------------|   Pre-Chorus #2-
D|--9-9-9-9-9-9-9-9---4-4-4-4-4-4-4-4---6-6-6-6-6-6-6-6----------|
A|--9-9-9-9-9-9-9-9---4-4-4-4-4-4-4-4---6-6-6-6-6-6-6-6----------|
E|--7-7-7-7-7-7-7-7---2-2-2-2-2-2-2-2---4-4-4-4-4-4-4-4----------|

E|---------------------------------------------------------------|
B|---------------------------------------------------------------|
G|--------------------4-4-4-4-4-4-4-4----------------------------|   -continued-
D|--4-4-4-4-4-4-4-4---4-4-4-4-4-4-4-4---6-6-6-6-6-6-6-6----------|
A|--4-4-4-4-4-4-4-4---2-2-2-2-2-2-2-2---6-6-6-6-6-6-6-6----------|
E|--2-2-2-2-2-2-2-2---------------------4-4-4-4-4-4-4-4----------|

E|---------------------------------------------------------------|
B|---------------------------------------------------------------|
G|---------------------------------------------------------------|   -continued 
D|--8--8-8-8-8---------------------------------------------------|
A|--8--8-8-8-8---------------------------------------------------|
E|--6--6-6-6-6---------------------------------------------------|
  
   [slow strum][This is played with effects
   so it might not sound right when played normally]
E|---------------------------------------------------------------|
B|---16----------------------------------------------------------|
G|---x-----------------------------------------------------------|
D|--13-----------------------------------------------------------|
A|---------------------------------------------------------------|
E|---------------------------------------------------------------|

E|---------------------------------------------------------------|
B|---------------------------------------------------------------|
G|---------------------------------------------------------------|   Interlude 4x 
D|------8-------7------------------------------------------------|
A|--6-6---6-5-5---5-4-4-4-4-4--4-5-------------------------------|
E|---------------------------6-----------------------------------|

   Played after interlude is played 2x [This is played
   with effects again]
E|---------------------------------------------------------------|
B|---------------------------------------------------------------|
G|--8-8-6---6-7-8--8-8-5---8-8-6---6-7-8-------------------------|
D|---------------------------------------------------------------|
A|---------------------------------------------------------------|
E|---------------------------------------------------------------|

E|---------------------------------------------------------------|
B|---------------------------------------------------------------|
G|--8-8-8-8--10-10-10-10--11-11-11-11--13-13-13-13---------------|   
D|--x-x-x-x--x-x-x-x-x-x--x--x--x--x---x--x--x--x----------------|
A|--6-6-6-6--8--8--8--8---9--9--9--9---11-11-11-11---------------|
E|---------------------------------------------------------------|

E|---------------------------------------------------------------|
B|---------------------------------------------------------------|
G|--15-15-15-15-15-----15\---------------------------------------|   
D|--x--x--x--x--x------x-----------------------------------------|
A|--13-13-13-13-13-----13\---------------------------------------|
E|---------------------------------------------------------------|

   Chorus #3 [listen to song for correct timing]
E|---------------------------------------------------------------|
B|---------------------------------------------------------------|
G|--------------------8-8-8-8------------------------------------|
D|--6-6-6-6--9-9-9-9--8-8-8-8--4-4-4-4--6-6-6-6--9-9-------------|
A|--6-6-6-6--9-9-9-9--6-6-6-6--4-4-4-4--6-6-6-6--9-9-------------|
E|--4-4-4-4--7-7-7-7-----------2-2-2-2--4-4-4-4--7-7-------------|


E|---------------------------------------------------------------|
B|---------------------------------------------------------------|
G|--------------------8-8-8-8------------------------------------|   
D|--6-6-6-6--9-9-9-9--8-8-8-8--4-4-4-4--6-6-6-6--9-9-9-9---------|
A|--6-6-6-6--9-9-9-9--6-6-6-6--4-4-4-4--6-6-6-6--9-9-9-9---------|
E|--4-4-4-4--7-7-7-7-----------2-2-2-2--4-4-4-4--7-7-7-7---------|

E|---------------------------------------------------------------|
B|---------------------------------------------------------------|
G|--4-4-4-4--6-6-6-6--8-8-8-8------------------------------------|   Chorus #2
D|--4-4-4-4--6-6-6-6--8-8-8-8--6-6-6-6--9-9-9-9-9-9-9-9----------|
A|--2-2-2-2--4-4-4-4--6-6-6-6--6-6-6-6--9-9-9-9-9-9-9-9----------|
E|-----------------------------4-4-4-4--7-7-7-7-7-7-7-7----------|

E|---------------------------------------------------------------|
B|---------------------------------------------------------------|
G|---------------16----------------------------------------------|   [went up by half a step]
D|------13-14-16-------------------------------------------------|
A|--/14----------------------------------------------------------|
E|---------------------------------------------------------------|

   Chorus #4 4x [went up by half a step]
E|---------------------------------------------------------------|
B|---------------------------------------------------------------|
G|--9-9-9-9------------------------------------------------------|
D|--9-9-9-9--5-5-5-5--7-7-7-7--10-10-10-10-----------------------|
A|--7-7-7-7--5-5-5-5--7-7-7-7--10-10-10-10-----------------------|
E|-----------3-3-3-3--5-5-5-5---8--8--8--8-----------------------|

E|---------------------------------------------------------------|
B|---------------------------------------------------------------|
G|--5-5-5-5--7-7-7-7--9-9-9-9------------------------------------|   
D|--5-5-5-5--7-7-7-7--9-9-9-9--7-7-7-7--10-10-10-10--------------|
A|--3-3-3-3--5-5-5-5--7-7-7-7--7-7-7-7--10-10-10-10--------------|
E|-----------------------------5-5-5-5---8--8--8--8--------------|

E|---------------------------------------------------------------|
B|--12--12-12-12---------------17-15-12--------------------------|
G|---------------14-12-------------------14-12-14-14b-12---------|
D|---------------------14-12-14--------------------------14-12-14|
A|---------------------------------------------------------------|
E|---------------------------------------------------------------|

E|---------------------------------------------------------------|
B|--12--12-14-15--15-14-12--15-14-12-----------------------------|
G|--12--12-14-15--15-14-12--15-14-12-----------------------------|
D|--12--12-14-15--15-14-12--15-14-12-----------------------------|
A|---------------------------------------------------------------|
E|---------------------------------------------------------------|

E|---------------------------------------------------------------|
B|-----17-15-12---------------------------12-12-14-15--15-14-12--|
G|--------------14-12-14-14b-12-----------12-12-14-15--15-14-12--|
D|--14--------------------------14-12-14--12-12-14-15--15-14-12--|
A|---------------------------------------------------------------|
E|---------------------------------------------------------------|

E|---------------------------------------------------------------|
B|--15-14-12\----------------------------------------------------|
G|--15-14-12\----------------------------------------------------|   
D|--15-14-12\----------------------------------------------------|
A|---------------------------------------------------------------|
E|---------------------------------------------------------------|



Tablature Notation

h - hammer on 
p - pull off 
b - bend string up
r - release bend
/ - slide up
\ - slide down
v - vibrato (or ~)
t - right hand tap
x - play 'note' with heavy muting
Tap to rate this tab
 
# A B C D E F G H I J K L M N O P Q R S T U V W X Y Z