Song name
# A B C D E F G H I J K L M N O P Q R S T U V W X Y Z

Scandal - Switch tab

Artist: Scandal
Song Title: switch

Intro:
e|----------------------------|--6-8p6--6-8p6--6-8p6-------|
B|--6-8----6-8----6-8---------|--6-8-8--6-8-8--6-8-8--6-8--|
G|-----------------------7-8--|-----------------------7-8--|
D|----------------------------|----------------------------|
A|----------------------------|----------------------------|
E|----------------------------|----------------------------|

e|--6-8p6--6-8p6--6-8p6-------|--6-8p6--6-8p6--6-8p6-------|
B|--6-8-8--6-8-8--6-8-8--6-8--|--6-8-8--6-8-8--6-8-8--6-8--|
G|-----------------------7-8--|-----------------------7-8--|
D|----------------------------|----------------------------|
A|----------------------------|----------------------------|
E|----------------------------|----------------------------|



akedo motto shiritaito kimi wa fukureteru, itsumo no youni
after this part...
SOLO:
e|-----------------------------------------------6-6-6-8-6-6----------|
B|-----6-6-8-8-----6-6-8-8------6-6-8-8-8-8--9-9-------------8-8-9----|
G|-8-8---------8-8---------8-8----------------------------------------|
D|--------------------------------------------------------------------|
A|--------------------------------------------------------------------|
E|--------------------------------------------------------------------|

e|-6-6-6-6-8------6-6-6-8-----6-6-6-8-----6-6-6-8----------------------|
B|-----------8-8----------8-8---------8-8---------8--8-8-8-8--6-6-8-8--|
G|---------------------------------------------------8-8-8-8--8-8-8-8--|
D|---------------------------------------------------------------------|
A|---------------------------------------------------------------------|
E|---------------------------------------------------------------------|




tab by: .|cff000089new

para kay.... Annie.......
Tap to rate this tab
 
# A B C D E F G H I J K L M N O P Q R S T U V W X Y Z