Guitaretab - guitar tabs
Song name
# A B C D E F G H I J K L M N O P Q R S T U V W X Y Z

Scandal - Goodbye To You tab

"Goodbye to You"
by Scandal (Featuring Patty Smyth)

INTRO:
e|-----------------|
B|-----------------|
G|-----------------|
D|---------7-----7-| x4
A|-----7-------7---|
E|-5-5---5---5-----|

e|-----------------|-----------------|-----------------|-----------------|
B|-----------------|-----------------|-----------------|-----------------|
G|-----------------|-----------------|---------2-----2-|---------1-----1-|
D|---------7-----7-|---------4-----4-|-----------------|-----------------|
A|-----7-------7---|-----5-------5---|-----4-------4---|-----2-------2---|
E|-5-5---5---5-----|-5-5---5---5-----|-2-2---2---2-----|-0-0---0---0-----|
[ Tab from: http://www.guitaretab.com/s/scandal/183761.html ]
VERSE:
e|-----------------|-----------------|-----------------|-----------------|
B|-----------------|-----------------|-----------------|-----------------|
G|-----------------|-----------------|---------2-----2-|---------1-----1-|
D|---------7-----7-|---------4-----4-|-----------------|-----------------| x2
A|-----7-------7---|-----5-------5---|-----4-------4---|-----2-------2---|
E|-5-5---5---5-----|-5-5---5---5-----|-2-2---2---2-----|-0-0---0---0-----|

| D /// | E /// | x2

CHORUS:
| A /// | D /// | F#m /// | E /// | x2

BRIDGE:
| F#m /// | D /// | x4
| F#m /// | C#m /// | D /// | E /// | x2

SOLO:
| F#m /// | C#m /// | D /// | E /// | x3
| F#m /// | C#m /// | D /// | D /// | E /// | E /// |


Note:
I was surprised this wasn't on the site so I figured it out and this is my first tab 
 I only tabbed the guitar picking part since the rest are basically just power chords.

I think it works well enough in standard tuning but you can modify it to drop D which 
sound better but is also a little bit harder to play.

Enjoy!

Rim
Related for Goodbye To You tab