Song name
# A B C D E F G H I J K L M N O P Q R S T U V W X Y Z

Scar Symmetry - Illusionist tab

e||--17^(19)--^(19)-----19\16-|-13-------------------------------|
B||---------------------------|---14-------12------7/12\7--------|
G||---------------------------|------13-11-----------------------|
D||---------------------------|---------------12\----------------|
A||---------------------------|----------------------------------|
E||---------------------------|----------------------------------|
B||---------------------------|----------------------------------|


e||---------------------------|----------------------------------|
B||---------------------------|----------------------------------|
G||------10-11-^10------------|----------------------------------|
D||\9-11-------------11-------|-9--------------------------------|
A||---------------------11----|---11--9\8------------------------|
E||---------------------------|----------------------------------|
B||---------------------------|----------------------------------|


e||-----------9---9--13/14-10----------------------------------------|
B||-12^(14)-----9-------------12-------------------------------------|
G||------------------------------11------\10-------------------------|
D||---------------------------------12-------------------------------|
A||------------------------------------14----------------------------|
E||------------------------------------------------------------------|
B||------------------------------------------------------------------|


e||/21-^-(22)-^21--16----------------/19\16-13--------------14/17|
B||--------------------19----------------------14----------------|
G||-----------------------18----------------------13-\10-11------|
D||---------------------------16\15------------------------------|
A||--------------------------------------------------------------|
E||--------------------------------------------------------------|
B||--------------------------------------------------------------|


e||-17\16-13-------------------------------------------------------9-10-14/16-|
B||----------14-------------------------------------------------12------------|
G||-------------14\13----------------------------------------11---------------|
D||-------------------15---------------------9-11----9/11-12------------------|
A||----------------------14----------\8-9-11------11--------------------------|
E||-------------------------17-16\--------------------------------------------|
B||---------------------------------------------------------------------------|


e||(16)-13----------^16-^21-16-13----------^19-16----------13-16-^17-....-----|
B||---------14----14--------------14----14--------14----14--------------------|
G||------------13--------------------13--------------13-----------------------|
D||---------------------------------------------------------------------------|
A||---------------------------------------------------------------------------|
E||---------------------------------------------------------------------------|
B||---------------------------------------------------------------------------|
Tap to rate this tab
# A B C D E F G H I J K L M N O P Q R S T U V W X Y Z