Song name
# A B C D E F G H I J K L M N O P Q R S T U V W X Y Z

Scar The Martyr - Blood Host tab

Alright, this song is played on a 7-string in Drop Gb tuning, the notes are Gb-Db-Gb-B-E-Ab-Db


Intro

             Guitar 1(listen to song to know exact amount of time played)
|-------------------------------------------------------------------------------------|
|-------------------------------------------------------------------------------------|
|-------------------------------------------------------------------------------------|
|--7-7-7-7-7-7-7-7-7-7-7-7-7-7-7-7-7-7-7-7-7-7-7-7-7-7-7-7-7-7-7-7-7-7-7-7------------|
|-------------------------------------------------------------------------------------|
|-------------------------------------------------------------------------------------|
|-------------------------------------------------------------------------------------|

             Guitar 2 at 00:12-00:40
|-------------------------------------------------------------------------------------|
|-------------------------------------------------------------------------------------|
|-------------------------------------------------------------------------------------|
|-------------------------------------------------------------------------------------|
|-------------------------------------------------------------------------------------|
|-------------------------------------------------------------------------------------|
|--0-0-0-0-0-0-0-0-0-0-0-0-12-12-12-12------------------------------------------------|

        Guitar 1 at 00:27-00:40
|--------------------------------------------------------------------------------------|
|--------------------------------------------------------------------------------------|
|--------------------------------------------------------------------------------------|
|--------------------------------------------------------------------------------------|
|--------------------------------------------------------------------------------------|
|--------------------------------------------------------------------------------------|
|--0-------------------------------12--------------------------------------------------|

        Verse Both Guitars

|--------------------------------------------------------------------------------------|
|--------------------------------------------------------------------------------------|
|--------------------------------------------------------------------------------------|
|--------------------------------------------------------------------------------------|
|--------------------------------------------------------------------------------------|
|--------------------------------------------------------------------------------------|
|--0-0-0-0-000-3-1-5-4-1-3--0-1-0-0-0000000-1b-----------------------------------------|

        Pre-Chorus is just the Intro again, except both guitars play their parts at the same time

        Verse

        Pre-Chorus

        Chorus part 1 Both Guitars

|-------------------------------------------------------------------------------------|
|-------------------------------------------------------------------------------------|
|-------------------------------------------------------------------------------------|
|--7-7-7-7-7-7-7----------------------------------------------------------------------|
|--7-7-7-7-7-7-7----------------------------------------------------------------------|
|--5-5-5-5-5-5-5----------------------------------------------------------------------|
|----------------5-6-7--1-4-1-4-1--5-7-5-7--------------------------------------------|

       Chorus part 2 Both Guitars

|---------------------------------------------------------------------------------------|
|---------------------------------------------------------------------------------------|
|---------------------------------------------------------------------------------------|
|--7-7-7-7-7-7-7-5-5-5-5-5-5-5----------------------------------------------------------|
|--7-7-7-7-7-7-7-5-5-5-5-5-5-5-3-3-3-3-3-3-5-5-5-5-5-5----------------------------------|
|--5-5-5-5-5-5-5-3-3-3-3-3-3-3-3-3-3-3-3-3-5-5-5-5-5-5----------------------------------|
|------------------------------3-3-3-3-3-3-5-5-5-5-5-5----------------------------------|

        Breakdown/Bridge Both Guitars
|--------------------------------------------------------------------------------------|
|--------------------------------------------------------------------------------------|
|--------------------------------------------------------------------------------------|
|--------------------------------------------------------------------------------------|
|--------------------------------------------------------------------------------------|
|--------------------------------------------------------------------------------------|
|--00-0-0-00--00-0-0-00--00-0-0-00--00000000-3b----------------------------------------|

        Solo Guitar 1

|--17-16-14-16-14----------------------------------------------------------------------|
|------------------17-17-16-14-16-14/12-15-14-12-14-12/10-13-12-10-12-10/9-------------|
|--------------------------------------------------------------------------------------|
|--------------------------------------------------------------------------------------|
|--------------------------------------------------------------------------------------|
|--------------------------------------------------------------------------------------|
|--------------------------------------------------------------------------------------|

|----------------------------------------12b-12~-11b-11~-15b-15~-17b-17~-----------------|
|--12-11-9-11-9/7-10-9-7-9-7/5-----------------------------------------------------------|
|----------------------------------------------------------------------------------------|
|----------------------------------------------------------------------------------------|
|----------------------------------------------------------------------------------------|
|----------------------------------------------------------------------------------------|
|----------------------------------------------------------------------------------------|

        Guitar 2

|--12-11-9-11-9------------------------------------------------------------------------|
|--------------12-12-11-9-11-9/7-10-9-7-9-7/5-8-7-5-7-5/4-7-6-4-6-4/3------------------|
|--------------------------------------------------------------------------------------|
|--------------------------------------------------------------------------------------|
|--------------------------------------------------------------------------------------|
|--------------------------------------------------------------------------------------|
|--------------------------------------------------------------------------------------|

|----------------------------------------------------------------------------------|
|--6-5-3-5-3/1--15b-15~-14b-14~-17b-17~-19b-19~------------------------------------|
|----------------------------------------------------------------------------------|
|----------------------------------------------------------------------------------|
|----------------------------------------------------------------------------------|
|----------------------------------------------------------------------------------|
|----------------------------------------------------------------------------------|

        Pre-Chorus

        Chorus

        Outro is the same thing as the verse
Tap to rate this tab
 
# A B C D E F G H I J K L M N O P Q R S T U V W X Y Z