Song name
# A B C D E F G H I J K L M N O P Q R S T U V W X Y Z

Scarling - Creep tab

-------------------------------------------------------------------------------
			     CREEP - Scarling
-------------------------------------------------------------------------------
Tabbed by:Luis Gustavo Hernández Collado
Email:ltavo_87@hotmail.com

Tuning:EADGBe

Intro
e|--------------------------------------|
B|---------3---------3---------3--------|
G|-------4---------5---------4----------|
D|-----5---------3---------5------------|
A|---5---------5---------5--------------|
E|-3---------3---------3----------------|

e|--------------------------------------|
B|---------7---------7---------7--------|
G|-------8---------9---------8----------|
D|-----9---------7---------9------------|
A|---9---------9---------9--------------|
E|-7---------7---------7----------------|

e|--------------------------------------|
B|---------8---------8---------8--------|
G|-------9---------10--------9----------|
D|-----10--------8---------10-----------|
A|---10--------10--------10-------------|
E|-8---------8---------8----------------|

e|--------------------------------------|
B|---------8---------8---------8--------|
G|-------9---------10--------9----------|
D|-----10--------8---------10-----------|
A|---10--------10--------10-------------|
E|-8---------8---------8----------------|

Verse 1 X2
(when you were here before...)
e|--------------------------------------|
B|---------3---------3---------3--------|
G|-------4---------5---------4----------|
D|-----5---------3---------5------------|
A|---5---------5---------5--------------|
E|-3---------3---------3----------------|

e|--------------------------------------|
B|---------7---------7---------7--------|
G|-------8---------9---------8----------|
D|-----9---------7---------9------------|
A|---9---------9---------9--------------|
E|-7---------7---------7----------------|

e|--------------------------------------|
B|---------8---------8---------8--------|
G|-------9---------10--------9----------|
D|-----10--------8---------10-----------|
A|---10--------10--------10-------------|
E|-8---------8---------8----------------|

e|--------------------------------------|
B|---------8---------8---------8--------|
G|-------9---------10--------9----------|
D|-----10--------8---------10-----------|
A|---10--------10--------10-------------|
E|-8---------8---------8----------------|

Chorus 1
(But I'm a creep, I'm a weirdo...)
e|-------------------------------------------------------------|
B|-------------------------------------------------------------|
G|-444555444/888999888/9-9-9-1010109-9-9-9-9-9-1010109-9-9---4-|
D|-555333555/999777999/1010108-8-8-1010101010108-8-8-101010--5-|
A|-555555555/999999999/101010101010101010101010101010101010--5-|
E|-333333333/777777777/8-8-8-8-8-8-8-8-8-8-8-8-8-8-8-8-8-8---3-|

Verse 2 X2
(Don't care if it hurts...)
e|--------------------------------------|
B|---------3---------3---------3--------|
G|-------4---------5---------4----------|
D|-----5---------3---------5------------|
A|---5---------5---------5--------------|
E|-3---------3---------3----------------|

e|--------------------------------------|
B|---------7---------7---------7--------|
G|-------8---------9---------8----------|
D|-----9---------7---------9------------|
A|---9---------9---------9--------------|
E|-7---------7---------7----------------|

e|--------------------------------------|
B|---------8---------8---------8--------|
G|-------9---------10--------9----------|
D|-----10--------8---------10-----------|
A|---10--------10--------10-------------|
E|-8---------8---------8----------------|

e|--------------------------------------|
B|---------8---------8---------8--------|
G|-------9---------10--------9----------|
D|-----10--------8---------10-----------|
A|---10--------10--------10-------------|
E|-8---------8---------8----------------|

Chorus 2
(But I'm a creep, I'm a weirdo...)
e|-------------------------------------------------------------|
B|-------------------------------------------------------------|
G|-444555444/888999888/9-9-9-1010109-9-9-9-9-9-1010109-9-9---4-|
D|-555333555/999777999/1010108-8-8-1010101010108-8-8-101010--5-|
A|-555555555/999999999/101010101010101010101010101010101010--5-|
E|-333333333/777777777/8-8-8-8-8-8-8-8-8-8-8-8-8-8-8-8-8-8---3-|

Interlude
(She's running out again...)
e|-------------------------------------|
B|-------------------------------------|
G|-4-4-4-5-5-5-4-4-4-4-4-4-5-5-5-4-4-4-|
D|-5-5-5-3-3-3-5-5-5-5-5-5-3-3-3-5-5-5-|
A|-5-5-5-5-5-5-5-5-5-5-5-5-5-5-5-5-5-5-|
E|-3-3-3-3-3-3-3-3-3-3-3-3-3-3-3-3-3-3-|

e|--------------------------------------|
B|--------------------------------------|
G|-9-9-9-1010109-9-9-9-9-9-1010109-9-9--|
D|-1010108-8-8-1010101010108-8-8-101010-|
A|-101010101010101010101010101010101010-|
E|-8-8-8-8-8-8-8-8-8-8-8-8-8-8-8-8-8-8--|

Verse 3 X2
(whatever makes you happy...)
e|--------------------------------------|
B|---------3---------3---------3--------|
G|-------4---------5---------4----------|
D|-----5---------3---------5------------|
A|---5---------5---------5--------------|
E|-3---------3---------3----------------|

e|--------------------------------------|
B|---------7---------7---------7--------|
G|-------8---------9---------8----------|
D|-----9---------7---------9------------|
A|---9---------9---------9--------------|
E|-7---------7---------7----------------|

e|--------------------------------------|
B|---------8---------8---------8--------|
G|-------9---------10--------9----------|
D|-----10--------8---------10-----------|
A|---10--------10--------10-------------|
E|-8---------8---------8----------------|

e|--------------------------------------|
B|---------8---------8---------8--------|
G|-------9---------10--------9----------|
D|-----10--------8---------10-----------|
A|---10--------10--------10-------------|
E|-8---------8---------8----------------|

Outro
(I don't belong here...)
e|---|
B|-3-|
G|-4-|
D|-5-|
A|-5-|
E|-3-|

Tap to rate this tab
# A B C D E F G H I J K L M N O P Q R S T U V W X Y Z