Song name
# A B C D E F G H I J K L M N O P Q R S T U V W X Y Z

Scarling - Black Horse Riding Star tab

INTRO
e----------------------------|
B----------------------------|
G----------------------------|   X5
D----------------------------|
A----------------------------|
D-1-1-1-1-1--4-4-4--7-7-7----|

CHOURSE
e-------------------------|
B-------------------------|
G-------------------------|
D-1-1-1-1-1--4-4-4--7-7-7-|
A-1-1-1-1-1--4-4-4--7-7-7-|
D-1-1-1-1-1--4-4-4--7-7-7-|
Tap to rate this tab
 
# A B C D E F G H I J K L M N O P Q R S T U V W X Y Z