Song name
# A B C D E F G H I J K L M N O P Q R S T U V W X Y Z

Scars On Broadway - Fucking tab

Fucking  Scars on Broadway
Tuning: Drop C

Im pretty sure this is right the other tabs didnt sound right to me so try it and 
tell me if it sounds good.

Intro:
Guitar 1
|--------------------------------------------------------------------------|
|--------------------------------------------------------------------------|
|--------------------------------------------------------------------------|
|--16-15-16-15-16-15-16-15-16-15-16-15-16-15-16-15-16-15-16-15-16-15-16-15-|
|--------------------------------------------------------------------------|
|--------------------------------------------------------------------------|

Guitar 2
|--------------------------------------------------------------------------|
|--------------------------------------------------------------------------|
|--------------------------------------------------------------------------|
|--12-13-12-13-12-13-12-13-12-13-12-13-12-13-12-13-12-13-12-13-12-13-12-13-|
|--------------------------------------------------------------------------|
|--------------------------------------------------------------------------|

Guitar 3
|--------------------------------------------------------------------------|
|--------------------------------------------------------------------------|
|--14-15-14-15-14-15-14-15-14-15-14-15-14-15-14-15-14-15-14-15-14-15-14-15-|
|--------------------------------------------------------------------------|
|--------------------------------------------------------------------------|
|--------------------------------------------------------------------------|

Chorus
|--------------------------------------------------------------------------|
|--------------------------------------------------------------------------|
|-8-8-8-8-8----8-8-8-8-8----8-8-8-8-8-8-8-8-8-8----------------------------|
|-8-8-8-8-8----8-8-8-8-8----8-8-8-8-8-8-8-8-8-8----------------------------|
|-6-6-6-6-6----6-6-6-6-6----6-6-6-6-6-6-6-6-6-6----------------------------|
|--------------------------------------------------------------------------|

Verse
|--------------------------------------------------------------------------|
|--------------------------------------------------------------------------|
|-8-7-8-7-8-7-8-7-8-7-8-7-8-7-8-7-8-7-8-7-8-7-8-7--------------------------|
|-8-7-8-7-8-7-8-7-8-7-8-7-8-7-8-7-8-7-8-7-8-7-8-7--------------------------|
|-6-5-6-5-6-5-6-5-6-5-6-5-6-5-6-5-6-5-6-5-6-5-6-5--------------------------|
|---------------------------------------------------------------------------

Guitar 2
  comes on once ,comes on twice, keep that pose it looks real nice
|--------------------------------------------------------------------------|
|--------------------------------------------------------------------------|
|--14-15-14-15-14-15-14-15-14-15-14-15-14-15-14-15-14-15-14-15-14-15-14-15-|
|--------------------------------------------------------------------------|
|--------------------------------------------------------------------------|
|--------------------------------------------------------------------------|

Bridge/Outro:

This part the timing is hard so I put in the words and spaced it so its easy to understand
|-------------------------------------------------------------------------|
|-------------------------------------------------------------------------|
|-------------------------------------------------------------------------|
|-7---8-8-8-8-8-8-8-8-8-8-8-8-8-8-8-8-8-8-8-8-8-8-8-8-8-8-8-8-------------|
|-7---8-8-8-8-8-8-8-8-8-8-8-8-8-8-8-8-8-8-8-8-8-8-8-8-8-8-8-8-------------|
|-7---8-8-8-8-8-8-8-8-8-8-8-8-8-8-8-8-8-8-8-8-8-8-8-8-8-8-8-8-------------|
 In  this world of make believe your children are sexualized 
|--------------------------------------------------------------------------|
|--------------------------------------------------------------------------|
|--------------------------------------------------------------------------|
|-7-----8-8-8-8-8-8-8-8-8-8---4-4-4-4-4-4-4-4-4-4-4------------------------|
|-7-----8-8-8-8-8-8-8-8-8-8---4-4-4-4-4-4-4-4-4-4-4------------------------|
|-7-----8-8-8-8-8-8-8-8-8-8---4-4-4-4-4-4-4-4-4-4-4------------------------|
  Look  so pretty you and me   Armageddon come alive

Thats it, its a really fun song to play so enjoy.
Tap to rate this tab
 
# A B C D E F G H I J K L M N O P Q R S T U V W X Y Z