Song name
# A B C D E F G H I J K L M N O P Q R S T U V W X Y Z

Scars On Broadway - Guns Are Loaded tab

-------------------------------------------------------------------------------
                Guns Are Loaded (New Song 2012) - Scars on Broadway
-------------------------------------------------------------------------------
Tabbed by: peaceman
Email: fahrraddach@yahoo.de

Tuning: drop C


|----------------------------------|
|----------------------------------|
|----------------------------------|
|-0-0-------------0-0--------2-----|
|-0-0----3-5-5----0-0----2-3-------|
|-0-0-------------0-0--------------|

|---------------------------------------------------------------------------|
|---------------------------------------------------------------------------|
|---------------------------------------------------------------------------|
|-0-0----------3-7-3--------------------------------------------------------|
|-0-0----3-5-7-------7-0----8-7-0--8-7-0------------------------------------|
|-0-0-----------------------------------------------------------------------|




************************************

| /   slide up
| \   slide down
| h   hammer-on
| p   pull-off
| ~   vibrato
| +   harmonic
| x   Mute note
| b   Bend
| pb  Pre-bend
| br  Bend release
| pbr Pre-bend release
| brb Bend release bend

************************************
Tap to rate this tab
# A B C D E F G H I J K L M N O P Q R S T U V W X Y Z