Song name
# A B C D E F G H I J K L M N O P Q R S T U V W X Y Z

School Of Rock - Teachers Pet tab

Teachers Pet
From The Movie School of Rock
Standard Tuning
EADGBe

Transcribed By: Hayden Branson (Haydos134)
Hayden_is_not@hotmail.com

This is the song played in the movie when they play
at the battle of the bands.

This is my first full Tab and I'm 14, so hope it sounds alright to everyone else, 
me if you find something wrong with it, thanks Haydos134.

Intro
|---------------------------------------------|
|--7-7-7-8-7-10-8-7-8-8-8-8-7-7-8-7-----------|
|--7-7-7-7-7-7--7-7-7-7-7-7-7-7-7-7-----------| x5
|---------------------------------------------|
|---------------------------------------------|
|---------------------------------------------|

verse
|---------------------------------------------|
|--7-7-7-8-7-10-8-7-8-8--8--7-7-8-8-----------|
|--7-7-7-7-7-7--7-7-7-7--7--7-7-7-7-----------|
|---------------------------------------------|
|---------------------------------------------|
|---------------------------------------------|

Solo
|-------------------------------------------------------------10h12p10--10-|
|-------12p10-----------------------------------10^10-10-10h12--------12---|
|---9^--------11p9p7h9p7--9---9-9-9-9-9--7-9-7-----------------------------|
|--------------------------------------------------------------------------|
|--------------------------------------------------------------------------|
|--------------------------------------------------------------------------|

|-10-12^12^--10h12p10----10--10---10--10-----------------------10---12^-12-|
|----------------------12-----------------10-12--10h12p10h12p10---12-------|
|--------------------------------------------------------------------------|
|--------------------------------------------------------------------------|
|--------------------------------------------------------------------------|
|--------------------------------------------------------------------------|

|-10-10-12^-10-12-10---------------|
|----------------------------------|
|----------------------------------|
|----------------------------------|
|----------------------------------|
|----------------------------------|

Thats all of the song, just keep playing the verse through the rest of the song. You'll 
to listen to the song to get how to play the solo. The only thing missing is the second 
but i couldn't quite figure that out. Peace.

The cords are simple, there the same through the whole song.

 D    C    G    C
|2----0----3----0-----|
|3----1----3----1-----|
|2----0----0----0-----|
|0----2----0----2-----|
|-----3----2----3-----|
|-----0----3----0-----|
Tap to rate this tab
 
# A B C D E F G H I J K L M N O P Q R S T U V W X Y Z