Song name
# A B C D E F G H I J K L M N O P Q R S T U V W X Y Z

Scooter - How Much Is The Fish tab

Scooter - How much is the fish?

Tabbed by: Johan Bjornell
Mail: na01jbl@student.hig.se


  Q=125
 4/4
  Gtr I

|-10-10-8-7-8-(8)------------|-10-10-8-7-10-10-8-7-8-|
|-----------------10-(10)-10-|-----------------------|
|----------------------------|-----------------------|
|----------------------------|-----------------------|
|----------------------------|-----------------------|
|----------------------------|-----------------------|


|-(8)------------------------|------------------------------|
|-----10-(10)-12----10-(10)--|-12-13-15-17-(17)-17-(17)-18--|
|----------------12----------|------------------------------|
|----------------------------|------------------------------|
|----------------------------|------------------------------|
|----------------------------|------------------------------|


|----------------------------|-----------------------------|
|----17-(17)--15-15-13-12-13-|-(13)------------15-15-13-12-|
|-19-------------------------|------14-(14)-14-------------|
|----------------------------|-----------------------------|
|----------------------------|-----------------------------|
|----------------------------|-----------------------------|


|-10-10-8-7-8-(8)------------|------------------*|
|-----------------10-(10)-12-|----10-(10)-------*|
|----------------------------|-12---------------*|
|----------------------------|------------------*|
|----------------------------|------------------*|
|----------------------------|------------------*|


Enjoy...
Tap to rate this tab
 
# A B C D E F G H I J K L M N O P Q R S T U V W X Y Z