Song name
# A B C D E F G H I J K L M N O P Q R S T U V W X Y Z

Screeching Weasel - Zombie tab

-------------------------------------------------------------------------------
			Zombie - Screeching Weasel
-------------------------------------------------------------------------------
Tabbed by: Michael

Tuning: Standard

I couldn't find any tabs of this anywhere on the internet, so here's my one.

This should be all of the parts, they just need pieced together.


e|---------------------------------------------------------------------------|
B|---------------------------------------------------------------------------|
G|-----------------10---10---10---10-----------------------------------------|
D|-4---4---4---4---10---10---10---10-----------------------------------------|
A|-4---4---4---4---8----8----8----8------------------------------------------|
E|-2---2---2---2-------------------------------------------------------------|

x4

e|---------------------------------------------------------------------------|
B|---------------------------------------------------------------------------|
G|---------------------------------------------------------------------------|
D|-11-11-11-11-11-11-11-----------------9-9-9-9-9-9-9------------------------|
A|-9--9--9--9--9--9--9---9-9-9-9-9-9-9--7-7-7-7-7-7-7---9-9-9-9-9-9-9--------|
E|-----------------------7-7-7-7-7-7-7------------------7-7-7-7-7-7-7--------|
      pm--------------     pm---------    pm---------     pm----------

x2

e|---------------------------------------------------------------------------|
B|---------------------------------------------------------------------------|
G|-11-11-11-11---------9-9-9-9-----------------------------------------------|
D|-11-11-11-11-9-9-9-9-9-9-9-9-9-9-9-9---------------------------------------|
A|-9--9--9--9--9-9-9-9-7-7-7-7-9-9-9-9---------------------------------------|
E|-------------7-7-7-7---------7-7-7-7---------------------------------------|

x4

e|---------------------------------------------------------------------------|
B|---------------------------------------------------------------------------|
G|--------------------------11-9-11------------------------------------------|
D|-7-7-7-7-7-7-7-7-9-9-9-9--11-9-11------------------------------------------|
A|-7-7-7-7-7-7-7-7-9-9-9-9--9--7-9-------------------------------------------|
E|-5-5-5-5-5-5-5-5-7-7-7-7---------------------------------------------------|

Solo

e|---------------------------------------------------------------------------|
B|---------------------------------------------------------------------------|
G|-11-11-13----------------9-9-11-----11-11-13-------------------------------|
D|----------11---9-9-11-----------9------------11----------------------------|
A|----------------------9----------------------------------------------------|
E|---------------------------------------------------------------------------|

e|---------------------------------------------------------------------------|
B|---------------------------------------------------------------------------|
G|---------------------------------------------------------------------------|
D|-4-4-6---------------2-2-4-----4-4-6---------------------------------------|
A|-------4---2-2-4-----------2---------4-------------------------------------|
E|-----------------2---------------------------------------------------------|

===============================================================================
Tap to rate this tab
 
# A B C D E F G H I J K L M N O P Q R S T U V W X Y Z