Song name
# A B C D E F G H I J K L M N O P Q R S T U V W X Y Z

Seahaven - Bottled tab

-------------------------------------------------------------------------------
                             BOTTLED - Seahaven
-------------------------------------------------------------------------------
Tabbed by: RIPsteggy
Tuning: Standard

e|-------------------------------------------|
B|-------------------------------------------|
G|-------------------------------------------|
D|-----7h9------9----------9----------9------|
A|-9h10---10-10---10-10-10---10-10-10---10---| x3
E|-------------------------------------------|


e|-------------------------------------------|
B|-------------------------------------------|
G|-------------------------------------------|
D|-----7---7--s--5-5555555-------------------|
A|-5-5---5---5s--3-3333333-------------------|
E|-------------------------------------------|
Tap to rate this tab
# A B C D E F G H I J K L M N O P Q R S T U V W X Y Z